  0
SECTION
  2
HEADER
  9
$ACADVER
  1
AC1015
  9
$ACADMAINTVER
 70
     6
  9
$DWGCODEPAGE
  3
ANSI_1254
  9
$INSBASE
 10
0.0
 20
0.0
 30
0.0
  9
$EXTMIN
 10
0.0
 20
0.0
 30
0.0
  9
$EXTMAX
 10
279.4
 20
215.9
 30
0.0
  9
$LIMMIN
 10
0.0
 20
0.0
  9
$LIMMAX
 10
279.4
 20
215.9
  9
$ORTHOMODE
 70
     0
  9
$REGENMODE
 70
     1
  9
$FILLMODE
 70
     1
  9
$QTEXTMODE
 70
     0
  9
$MIRRTEXT
 70
     1
  9
$LTSCALE
 40
1.0
  9
$ATTMODE
 70
     1
  9
$TEXTSIZE
 40
3.5
  9
$TRACEWID
 40
1.0
  9
$TEXTSTYLE
  7
Standard
  9
$CLAYER
  8
0
  9
$CELTYPE
  6
ByLayer
  9
$CECOLOR
 62
   256
  9
$CELTSCALE
 40
1.0
  9
$DISPSILH
 70
     0
  9
$DIMSCALE
 40
1.0
  9
$DIMASZ
 40
3.5
  9
$DIMEXO
 40
1.0
  9
$DIMDLI
 40
3.75
  9
$DIMRND
 40
0.0
  9
$DIMDLE
 40
0.0
  9
$DIMEXE
 40
1.0
  9
$DIMTP
 40
0.0
  9
$DIMTM
 40
0.0
  9
$DIMTXT
 40
3.5
  9
$DIMCEN
 40
2.5
  9
$DIMTSZ
 40
0.0
  9
$DIMTOL
 70
     0
  9
$DIMLIM
 70
     0
  9
$DIMTIH
 70
     1
  9
$DIMTOH
 70
     1
  9
$DIMSE1
 70
     0
  9
$DIMSE2
 70
     0
  9
$DIMTAD
 70
     1
  9
$DIMZIN
 70
     0
  9
$DIMBLK
  1

  9
$DIMASO
 70
     1
  9
$DIMSHO
 70
     1
  9
$DIMPOST
  1

  9
$DIMAPOST
  1

  9
$DIMALT
 70
     0
  9
$DIMALTD
 70
     3
  9
$DIMALTF
 40
0.0393700787
  9
$DIMLFAC
 40
1.0
  9
$DIMTOFL
 70
     1
  9
$DIMTVP
 40
0.0
  9
$DIMTIX
 70
     0
  9
$DIMSOXD
 70
     0
  9
$DIMSAH
 70
     0
  9
$DIMBLK1
  1

  9
$DIMBLK2
  1

  9
$DIMSTYLE
  2
ISO-25
  9
$DIMCLRD
 70
     0
  9
$DIMCLRE
 70
     0
  9
$DIMCLRT
 70
     0
  9
$DIMTFAC
 40
1.0
  9
$DIMGAP
 40
1.524
  9
$DIMJUST
 70
     0
  9
$DIMSD1
 70
     0
  9
$DIMSD2
 70
     0
  9
$DIMTOLJ
 70
     0
  9
$DIMTZIN
 70
     0
  9
$DIMALTZ
 70
     0
  9
$DIMALTTZ
 70
     0
  9
$DIMUPT
 70
     0
  9
$DIMDEC
 70
     2
  9
$DIMTDEC
 70
     2
  9
$DIMALTU
 70
     2
  9
$DIMALTTD
 70
     3
  9
$DIMTXSTY
  7
Standard
  9
$DIMAUNIT
 70
     0
  9
$DIMADEC
 70
     2
  9
$DIMALTRND
 40
0.0
  9
$DIMAZIN
 70
     0
  9
$DIMDSEP
 70
    44
  9
$DIMATFIT
 70
     3
  9
$DIMFRAC
 70
     0
  9
$DIMLDRBLK
  1

  9
$DIMLUNIT
 70
     2
  9
$DIMLWD
 70
    -2
  9
$DIMLWE
 70
    -2
  9
$DIMTMOVE
 70
     0
  9
$LUNITS
 70
     2
  9
$LUPREC
 70
     2
  9
$SKETCHINC
 40
1.0
  9
$FILLETRAD
 40
10.0
  9
$AUNITS
 70
     0
  9
$AUPREC
 70
     2
  9
$MENU
  1
.
  9
$ELEVATION
 40
0.0
  9
$PELEVATION
 40
0.0
  9
$THICKNESS
 40
0.0
  9
$LIMCHECK
 70
     0
  9
$CHAMFERA
 40
0.0
  9
$CHAMFERB
 40
0.0
  9
$CHAMFERC
 40
0.0
  9
$CHAMFERD
 40
0.0
  9
$SKPOLY
 70
     0
  9
$TDCREATE
 40
2458985.718200174
  9
$TDUCREATE
 40
2458985.593200174
  9
$TDUPDATE
 40
2458985.71820044
  9
$TDUUPDATE
 40
2458985.59320044
  9
$TDINDWG
 40
0.0000000116
  9
$TDUSRTIMER
 40
0.0000000116
  9
$USRTIMER
 70
     1
  9
$ANGBASE
 50
0.0
  9
$ANGDIR
 70
     0
  9
$PDMODE
 70
     0
  9
$PDSIZE
 40
-1.0
  9
$PLINEWID
 40
0.0
  9
$SPLFRAME
 70
     0
  9
$SPLINETYPE
 70
     6
  9
$SPLINESEGS
 70
     8
  9
$HANDSEED
  5
E1
  9
$SURFTAB1
 70
     6
  9
$SURFTAB2
 70
     6
  9
$SURFTYPE
 70
     6
  9
$SURFU
 70
     6
  9
$SURFV
 70
     6
  9
$UCSBASE
  2

  9
$UCSNAME
  2

  9
$UCSORG
 10
0.0
 20
0.0
 30
0.0
  9
$UCSXDIR
 10
1.0
 20
0.0
 30
0.0
  9
$UCSYDIR
 10
0.0
 20
1.0
 30
0.0
  9
$UCSORTHOREF
  2

  9
$UCSORTHOVIEW
 70
     0
  9
$UCSORGTOP
 10
0.0
 20
0.0
 30
0.0
  9
$UCSORGBOTTOM
 10
0.0
 20
0.0
 30
0.0
  9
$UCSORGLEFT
 10
0.0
 20
0.0
 30
0.0
  9
$UCSORGRIGHT
 10
0.0
 20
0.0
 30
0.0
  9
$UCSORGFRONT
 10
0.0
 20
0.0
 30
0.0
  9
$UCSORGBACK
 10
0.0
 20
0.0
 30
0.0
  9
$PUCSBASE
  2

  9
$PUCSNAME
  2

  9
$PUCSORG
 10
0.0
 20
0.0
 30
0.0
  9
$PUCSXDIR
 10
1.0
 20
0.0
 30
0.0
  9
$PUCSYDIR
 10
0.0
 20
1.0
 30
0.0
  9
$PUCSORTHOREF
  2

  9
$PUCSORTHOVIEW
 70
     0
  9
$PUCSORGTOP
 10
0.0
 20
0.0
 30
0.0
  9
$PUCSORGBOTTOM
 10
0.0
 20
0.0
 30
0.0
  9
$PUCSORGLEFT
 10
0.0
 20
0.0
 30
0.0
  9
$PUCSORGRIGHT
 10
0.0
 20
0.0
 30
0.0
  9
$PUCSORGFRONT
 10
0.0
 20
0.0
 30
0.0
  9
$PUCSORGBACK
 10
0.0
 20
0.0
 30
0.0
  9
$USERI1
 70
     0
  9
$USERI2
 70
     0
  9
$USERI3
 70
     0
  9
$USERI4
 70
     0
  9
$USERI5
 70
     0
  9
$USERR1
 40
0.0
  9
$USERR2
 40
0.0
  9
$USERR3
 40
0.0
  9
$USERR4
 40
0.0
  9
$USERR5
 40
0.0
  9
$WORLDVIEW
 70
     1
  9
$SHADEDGE
 70
     3
  9
$SHADEDIF
 70
    70
  9
$TILEMODE
 70
     1
  9
$MAXACTVP
 70
    64
  9
$PINSBASE
 10
0.0
 20
0.0
 30
0.0
  9
$PLIMCHECK
 70
     0
  9
$PEXTMIN
 10
1.0000000000E+20
 20
1.0000000000E+20
 30
1.0000000000E+20
  9
$PEXTMAX
 10
-1.0000000000E+20
 20
-1.0000000000E+20
 30
-1.0000000000E+20
  9
$PLIMMIN
 10
0.0
 20
0.0
  9
$PLIMMAX
 10
420.0
 20
297.0
  9
$UNITMODE
 70
     0
  9
$VISRETAIN
 70
     1
  9
$PLINEGEN
 70
     0
  9
$PSLTSCALE
 70
     1
  9
$TREEDEPTH
 70
  3020
  9
$CMLSTYLE
  2
Standard
  9
$CMLJUST
 70
     0
  9
$CMLSCALE
 40
20.0
  9
$PROXYGRAPHICS
 70
     1
  9
$MEASUREMENT
 70
     1
  9
$CELWEIGHT
370
    -1
  9
$ENDCAPS
280
     0
  9
$JOINSTYLE
280
     0
  9
$LWDISPLAY
290
     1
  9
$INSUNITS
 70
     4
  9
$HYPERLINKBASE
  1

  9
$STYLESHEET
  1

  9
$XEDIT
290
     1
  9
$CEPSNTYPE
380
     0
  9
$PSTYLEMODE
290
     1
  9
$FINGERPRINTGUID
  2
{36cce16d-51d7-4018-b4cf-242321849b04}
  9
$VERSIONGUID
  2
{FAEB1C32-E019-11D5-929B-00C0DF256EC4}
  9
$EXTNAMES
290
     1
  9
$PSVPSCALE
 40
0.0
  9
$OLESTARTUP
290
     0
  0
ENDSEC
  0
SECTION
  2
CLASSES
  0
CLASS
  1
ACDBDICTIONARYWDFLT
  2
AcDbDictionaryWithDefault
  3
ObjectDBX Classes
 90
        0
280
     0
281
     0
  0
CLASS
  1
VISUALSTYLE
  2
AcDbVisualStyle
  3
ObjectDBX Classes
 90
     4095
280
     0
281
     0
  0
CLASS
  1
MATERIAL
  2
AcDbMaterial
  3
ObjectDBX Classes
 90
     1153
280
     0
281
     0
  0
CLASS
  1
SCALE
  2
AcDbScale
  3
ObjectDBX Classes
 90
     1153
280
     0
281
     0
  0
CLASS
  1
TABLESTYLE
  2
AcDbTableStyle
  3
ObjectDBX Classes
 90
     4095
280
     0
281
     0
  0
CLASS
  1
MLEADERSTYLE
  2
AcDbMLeaderStyle
  3
ACDB_MLEADERSTYLE_CLASS
 90
     4095
280
     0
281
     0
  0
CLASS
  1
SUN
  2
AcDbSun
  3
SCENEOE
 90
     1153
280
     0
281
     0
  0
CLASS
  1
ACDBPLACEHOLDER
  2
AcDbPlaceHolder
  3
ObjectDBX Classes
 90
        0
280
     0
281
     0
  0
CLASS
  1
LAYOUT
  2
AcDbLayout
  3
ObjectDBX Classes
 90
        0
280
     0
281
     0
  0
ENDSEC
  0
SECTION
  2
TABLES
  0
TABLE
  2
VPORT
  5
8
330
0
100
AcDbSymbolTable
 70
     1
  0
VPORT
  5
29
330
8
100
AcDbSymbolTableRecord
100
AcDbViewportTableRecord
  2
*Active
 70
     0
 10
0.0
 20
0.0
 11
1.0
 21
1.0
 12
139.7
 22
107.95
 13
0.0
 23
0.0
 14
10.0
 24
10.0
 15
10.0
 25
10.0
 16
0.0
 26
0.0
 36
1.0
 17
0.0
 27
0.0
 37
0.0
 40
215.9
 41
1.2941176471
 42
50.0
 43
0.0
 44
0.0
 50
0.0
 51
0.0
 71
     0
 72
  2000
 73
     1
 74
     3
 75
     0
 76
     0
 77
     0
 78
     0
281
     0
 65
     1
110
0.0
120
0.0
130
0.0
111
1.0
121
0.0
131
0.0
112
0.0
122
1.0
132
0.0
 79
     0
146
0.0
  0
ENDTAB
  0
TABLE
  2
LTYPE
  5
5
330
0
100
AcDbSymbolTable
 70
     6
  0
LTYPE
  5
14
330
5
100
AcDbSymbolTableRecord
100
AcDbLinetypeTableRecord
  2
ByBlock
 70
     0
  3

 72
    65
 73
     0
 40
0.0
  0
LTYPE
  5
15
330
5
100
AcDbSymbolTableRecord
100
AcDbLinetypeTableRecord
  2
ByLayer
 70
     0
  3

 72
    65
 73
     0
 40
0.0
  0
LTYPE
  5
16
330
5
100
AcDbSymbolTableRecord
100
AcDbLinetypeTableRecord
  2
Continuous
 70
     0
  3
Solid line
 72
    65
 73
     0
 40
0.0
  0
LTYPE
  5
6E
330
5
100
AcDbSymbolTableRecord
100
AcDbLinetypeTableRecord
  2
HIDDEN
 70
     0
  3
Hidden __ __ __ __ __ __ __ __ __ __ __ __ __ __
 72
    65
 73
     2
 40
1.905
 49
1.27
 74
     0
 49
-0.635
 74
     0
  0
LTYPE
  5
6F
330
5
100
AcDbSymbolTableRecord
100
AcDbLinetypeTableRecord
  2
PHANTOM
 70
     0
  3
Phantom ______  __  __  ______  __  __  ______
 72
    65
 73
     6
 40
12.7
 49
6.35
 74
     0
 49
-1.27
 74
     0
 49
1.27
 74
     0
 49
-1.27
 74
     0
 49
1.27
 74
     0
 49
-1.27
 74
     0
  0
LTYPE
  5
70
330
5
100
AcDbSymbolTableRecord
100
AcDbLinetypeTableRecord
  2
CENTER
 70
     0
  3
Center ____ _ ____ _ ____ _ ____ _ ____ _ ____
 72
    65
 73
     4
 40
10.16
 49
6.35
 74
     0
 49
-1.27
 74
     0
 49
1.27
 74
     0
 49
-1.27
 74
     0
  0
LTYPE
  5
71
330
5
100
AcDbSymbolTableRecord
100
AcDbLinetypeTableRecord
  2
CENTERX2
 70
     0
  3
Center (2x) ________  __  ________  __  _____
 72
    65
 73
     4
 40
20.32
 49
12.7
 74
     0
 49
-2.54
 74
     0
 49
2.54
 74
     0
 49
-2.54
 74
     0
  0
LTYPE
  5
72
330
5
100
AcDbSymbolTableRecord
100
AcDbLinetypeTableRecord
  2
DOT2
 70
     0
  3
Dot (.5x) ........................................
 72
    65
 73
     2
 40
0.635
 49
0.0
 74
     0
 49
-0.635
 74
     0
  0
ENDTAB
  0
TABLE
  2
LAYER
  5
2
330
0
100
AcDbSymbolTable
 70
    17
  0
LAYER
  5
10
330
2
100
AcDbSymbolTableRecord
100
AcDbLayerTableRecord
  2
0
 70
     0
 62
     7
  6
Continuous
370
    -3
390
F
  0
LAYER
  5
73
330
2
100
AcDbSymbolTableRecord
100
AcDbLayerTableRecord
  2
FORMAT
 70
     0
 62
     7
  6
Continuous
370
    -3
390
F
  0
LAYER
  5
74
330
2
100
AcDbSymbolTableRecord
100
AcDbLayerTableRecord
  2
YARDIMCI_GEOMETRI
 70
     0
 62
    -6
  6
Continuous
290
     0
370
    -3
390
F
  0
LAYER
  5
75
330
2
100
AcDbSymbolTableRecord
100
AcDbLayerTableRecord
  2
SAYFA_CERCEVESI
 70
     0
 62
     7
  6
Continuous
370
    25
390
F
  0
LAYER
  5
76
330
2
100
AcDbSymbolTableRecord
100
AcDbLayerTableRecord
  2
ANTET
 70
     0
 62
     7
  6
Continuous
370
    -3
390
F
  0
LAYER
  5
77
330
2
100
AcDbSymbolTableRecord
100
AcDbLayerTableRecord
  2
OLCU
 70
     0
 62
   150
  6
Continuous
370
    -3
390
F
  0
LAYER
  5
78
330
2
100
AcDbSymbolTableRecord
100
AcDbLayerTableRecord
  2
METIN
 70
     0
 62
    96
  6
Continuous
370
    -3
390
F
  0
LAYER
  5
79
330
2
100
AcDbSymbolTableRecord
100
AcDbLayerTableRecord
  2
BALON
 70
     0
 62
     5
  6
Continuous
370
    -3
390
F
  0
LAYER
  5
7A
330
2
100
AcDbSymbolTableRecord
100
AcDbLayerTableRecord
  2
VURGU
 70
     0
 62
     7
  6
Continuous
370
    -3
390
F
  0
LAYER
  5
7B
330
2
100
AcDbSymbolTableRecord
100
AcDbLayerTableRecord
  2
SILIK
 70
     0
 62
     7
  6
Continuous
370
    -3
390
F
  0
LAYER
  5
7C
330
2
100
AcDbSymbolTableRecord
100
AcDbLayerTableRecord
  2
MODEL
 70
     0
 62
     7
  6
Continuous
370
    -3
390
F
  0
LAYER
  5
7D
330
2
100
AcDbSymbolTableRecord
100
AcDbLayerTableRecord
  2
DETAYLANDıRMA
 70
     0
 62
   190
  6
Continuous
370
    -3
390
F
  0
LAYER
  5
7E
330
2
100
AcDbSymbolTableRecord
100
AcDbLayerTableRecord
  2
TOLERANS
 70
     0
 62
   230
  6
Continuous
370
    -3
390
F
  0
LAYER
  5
7F
330
2
100
AcDbSymbolTableRecord
100
AcDbLayerTableRecord
  2
MERKEZ_CIZGILERI
 70
     0
 62
    30
  6
Continuous
370
    -3
390
F
  0
LAYER
  5
80
330
2
100
AcDbSymbolTableRecord
100
AcDbLayerTableRecord
  2
KESIT-DETAY_CIZGILERI
 70
     0
 62
     7
  6
Continuous
370
    -3
390
F
  0
LAYER
  5
81
330
2
100
AcDbSymbolTableRecord
100
AcDbLayerTableRecord
  2
\U+041E\U+0421\U+0415\U+0412\U+042B\U+0415
 70
     0
 62
     7
  6
Continuous
370
    -3
390
F
  0
LAYER
  5
82
330
2
100
AcDbSymbolTableRecord
100
AcDbLayerTableRecord
  2
\U+0412\U+041E\U+0414\U+042F\U+041D\U+042B\U+0415_\U+0417\U+041D\U+0410\U+041A\U+0418
 70
     0
 62
    11
  6
Continuous
370
    -3
390
F
  0
ENDTAB
  0
TABLE
  2
STYLE
  5
3
330
0
100
AcDbSymbolTable
 70
     1
  0
STYLE
  5
11
330
3
100
AcDbSymbolTableRecord
100
AcDbTextStyleTableRecord
  2
Standard
 70
     0
 40
0.0
 41
1.0
 50
0.0
 71
     0
 42
3.5
  3
txt
  4

  0
ENDTAB
  0
TABLE
  2
VIEW
  5
6
330
0
100
AcDbSymbolTable
 70
     0
  0
ENDTAB
  0
TABLE
  2
UCS
  5
7
330
0
100
AcDbSymbolTable
 70
     0
  0
ENDTAB
  0
TABLE
  2
APPID
  5
9
330
0
100
AcDbSymbolTable
 70
     1
  0
APPID
  5
12
330
9
100
AcDbSymbolTableRecord
100
AcDbRegAppTableRecord
  2
ACAD
 70
     0
  0
ENDTAB
  0
TABLE
  2
DIMSTYLE
  5
A
330
0
100
AcDbSymbolTable
 70
     1
100
AcDbDimStyleTable
  0
DIMSTYLE
105
27
330
A
100
AcDbSymbolTableRecord
100
AcDbDimStyleTableRecord
  2
ISO-25
 70
     0
 41
2.5
 42
0.625
 43
3.75
 44
1.25
 73
     0
 74
     0
 77
     1
 78
     8
140
2.5
141
2.5
143
0.0393700787
147
0.625
171
     3
172
     1
178
     0
271
     2
272
     2
274
     3
278
    44
283
     0
284
     8
340
11
  0
ENDTAB
  0
TABLE
  2
BLOCK_RECORD
  5
1
330
0
100
AcDbSymbolTable
 70
     3
  0
BLOCK_RECORD
  5
1F
330
1
100
AcDbSymbolTableRecord
100
AcDbBlockTableRecord
  2
*Model_Space
340
22
  0
BLOCK_RECORD
  5
1B
330
1
100
AcDbSymbolTableRecord
100
AcDbBlockTableRecord
  2
*Paper_Space
340
1E
  0
BLOCK_RECORD
  5
23
330
1
100
AcDbSymbolTableRecord
100
AcDbBlockTableRecord
  2
*Paper_Space0
340
26
  0
BLOCK_RECORD
  5
B1
330
1
100
AcDbSymbolTableRecord
100
AcDbBlockTableRecord
  2
SW_CENTERMARKSYMBOL_0
340
0
102
{BLKREFS
331
BC
102
}
  0
BLOCK_RECORD
  5
C7
330
1
100
AcDbSymbolTableRecord
100
AcDbBlockTableRecord
  2
SW_CENTERMARKSYMBOL_1
340
0
102
{BLKREFS
331
D2
102
}
  0
ENDTAB
  0
ENDSEC
  0
SECTION
  2
BLOCKS
  0
BLOCK
  5
20
330
1F
100
AcDbEntity
  8
0
100
AcDbBlockBegin
  2
*Model_Space
 70
     0
 10
0.0
 20
0.0
 30
0.0
  3
*Model_Space
  1

  0
ENDBLK
  5
21
330
1F
100
AcDbEntity
  8
0
100
AcDbBlockEnd
  0
BLOCK
  5
1C
330
1B
100
AcDbEntity
 67
     1
  8
0
100
AcDbBlockBegin
  2
*Paper_Space
 70
     0
 10
0.0
 20
0.0
 30
0.0
  3
*Paper_Space
  1

  0
ENDBLK
  5
1D
330
1B
100
AcDbEntity
 67
     1
  8
0
100
AcDbBlockEnd
  0
BLOCK
  5
24
330
23
100
AcDbEntity
  8
0
100
AcDbBlockBegin
  2
*Paper_Space0
 70
     0
 10
0.0
 20
0.0
 30
0.0
  3
*Paper_Space0
  1

  0
ENDBLK
  5
25
330
23
100
AcDbEntity
  8
0
100
AcDbBlockEnd
  0
BLOCK
  5
B2
330
B1
100
AcDbEntity
  8
0
100
AcDbBlockBegin
  2
SW_CENTERMARKSYMBOL_0
 70
     0
 10
0.0
 20
0.0
 30
0.0
  3
SW_CENTERMARKSYMBOL_0
  1

  0
LINE
  5
B4
330
B1
100
AcDbEntity
  8
FORMAT
 62
     0
100
AcDbLine
 10
0.0
 20
0.0
 30
0.0
 11
0.0
 21
2.5
 31
0.0
  0
LINE
  5
B5
330
B1
100
AcDbEntity
  8
FORMAT
 62
     0
100
AcDbLine
 10
0.0
 20
0.0
 30
0.0
 11
-2.5
 21
0.0
 31
0.0
  0
LINE
  5
B6
330
B1
100
AcDbEntity
  8
FORMAT
 62
     0
100
AcDbLine
 10
0.0
 20
0.0
 30
0.0
 11
0.0
 21
-2.5
 31
0.0
  0
LINE
  5
B7
330
B1
100
AcDbEntity
  8
FORMAT
 62
     0
100
AcDbLine
 10
0.0
 20
0.0
 30
0.0
 11
2.5
 21
0.0
 31
0.0
  0
LINE
  5
B8
330
B1
100
AcDbEntity
  8
FORMAT
 62
     0
100
AcDbLine
 10
0.0
 20
5.0
 30
0.0
 11
0.0
 21
115.0
 31
0.0
  0
LINE
  5
B9
330
B1
100
AcDbEntity
  8
FORMAT
 62
     0
100
AcDbLine
 10
-5.0
 20
0.0
 30
0.0
 11
-115.0
 21
0.0
 31
0.0
  0
LINE
  5
BA
330
B1
100
AcDbEntity
  8
FORMAT
 62
     0
100
AcDbLine
 10
0.0
 20
-5.0
 30
0.0
 11
0.0
 21
-115.0
 31
0.0
  0
LINE
  5
BB
330
B1
100
AcDbEntity
  8
FORMAT
 62
     0
100
AcDbLine
 10
5.0
 20
0.0
 30
0.0
 11
115.0
 21
0.0
 31
0.0
  0
ENDBLK
  5
B3
330
B1
100
AcDbEntity
  8
0
100
AcDbBlockEnd
  0
BLOCK
  5
C8
330
C7
100
AcDbEntity
  8
0
100
AcDbBlockBegin
  2
SW_CENTERMARKSYMBOL_1
 70
     0
 10
0.0
 20
0.0
 30
0.0
  3
SW_CENTERMARKSYMBOL_1
  1

  0
LINE
  5
CA
330
C7
100
AcDbEntity
  8
FORMAT
 62
     0
100
AcDbLine
 10
0.0
 20
0.0
 30
0.0
 11
0.0
 21
2.5
 31
0.0
  0
LINE
  5
CB
330
C7
100
AcDbEntity
  8
FORMAT
 62
     0
100
AcDbLine
 10
0.0
 20
0.0
 30
0.0
 11
-2.5
 21
0.0
 31
0.0
  0
LINE
  5
CC
330
C7
100
AcDbEntity
  8
FORMAT
 62
     0
100
AcDbLine
 10
0.0
 20
0.0
 30
0.0
 11
0.0
 21
-2.5
 31
0.0
  0
LINE
  5
CD
330
C7
100
AcDbEntity
  8
FORMAT
 62
     0
100
AcDbLine
 10
0.0
 20
0.0
 30
0.0
 11
2.5
 21
0.0
 31
0.0
  0
LINE
  5
CE
330
C7
100
AcDbEntity
  8
FORMAT
 62
     0
100
AcDbLine
 10
0.0
 20
5.0
 30
0.0
 11
0.0
 21
115.0
 31
0.0
  0
LINE
  5
CF
330
C7
100
AcDbEntity
  8
FORMAT
 62
     0
100
AcDbLine
 10
-5.0
 20
0.0
 30
0.0
 11
-115.0
 21
0.0
 31
0.0
  0
LINE
  5
D0
330
C7
100
AcDbEntity
  8
FORMAT
 62
     0
100
AcDbLine
 10
0.0
 20
-5.0
 30
0.0
 11
0.0
 21
-115.0
 31
0.0
  0
LINE
  5
D1
330
C7
100
AcDbEntity
  8
FORMAT
 62
     0
100
AcDbLine
 10
5.0
 20
0.0
 30
0.0
 11
115.0
 21
0.0
 31
0.0
  0
ENDBLK
  5
C9
330
C7
100
AcDbEntity
  8
0
100
AcDbBlockEnd
  0
ENDSEC
  0
SECTION
  2
ENTITIES
  0
LINE
  5
83
330
1F
100
AcDbEntity
  8
0
  6
Continuous
 62
     7
370
    25
100
AcDbLine
 10
20.9561191457
 20
91.4336519915
 30
0.0
 11
20.9561191457
 21
-59.967316441
 31
0.0
  0
LINE
  5
84
330
1F
100
AcDbEntity
  8
0
  6
Continuous
 62
     7
370
    25
100
AcDbLine
 10
245.9561131852
 20
-59.967316441
 30
0.0
 11
245.9561131852
 21
91.4336519915
 31
0.0
  0
ARC
  5
85
330
1F
100
AcDbEntity
  8
0
  6
Continuous
 62
     7
370
    25
100
AcDbCircle
 10
245.9561161655
 20
91.4336577921
 30
0.0
 40
225.0
100
AcDbArc
 50
135.0
 51
180.0
  0
LINE
  5
86
330
1F
100
AcDbEntity
  8
0
  6
Continuous
 62
     7
370
    25
100
AcDbLine
 10
196.9066016334
 20
360.5821954685
 30
0.0
 11
86.8570893961
 21
250.5326795059
 31
0.0
  0
LINE
  5
87
330
1F
100
AcDbEntity
  8
0
  6
Continuous
 62
     7
370
    25
100
AcDbLine
 10
245.9561131852
 20
91.4336519915
 30
0.0
 11
356.0056291478
 21
201.4831828552
 31
0.0
  0
LINE
  5
88
330
1F
100
AcDbEntity
  8
0
  6
Continuous
 62
     7
370
    25
100
AcDbLine
 10
133.4561161655
 20
-59.967316441
 30
0.0
 11
245.9561131852
 21
-59.967316441
 31
0.0
  0
LINE
  5
89
330
1F
100
AcDbEntity
  8
0
  6
Continuous
 62
     7
370
    25
100
AcDbLine
 10
20.9561191457
 20
-59.967316441
 30
0.0
 11
133.4561161655
 21
-59.967316441
 31
0.0
  0
LWPOLYLINE
  5
8A
330
1F
100
AcDbEntity
  8
0
  6
Continuous
 62
     7
370
    25
100
AcDbPolyline
 90
       29
 70
   128
 43
0.0
 10
276.4561228412
 20
281.0326742607
 10
280.9164874213
 20
276.5723096805
 10
285.3628300088
 20
272.1259521919
 10
289.7811584132
 20
267.7076386887
 10
294.1575549501
 20
263.331257053
 10
298.4782509464
 20
259.0105461555
 10
302.7296565431
 20
254.75915546
 10
306.8983904975
 20
250.5904066044
 10
310.971354689
 20
246.5174424129
 10
314.9357192176
 20
242.5530778843
 10
318.7790118116
 20
238.7098001915
 10
322.4891327279
 20
234.9996494728
 10
326.0544292587
 20
231.4343678432
 10
329.4636659282
 20
228.0251311737
 10
332.7061139005
 20
224.7826981026
 10
335.7715807813
 20
221.7172014194
 10
338.6504255193
 20
218.8383566814
 10
341.3335882085
 20
216.1552237945
 10
343.8126198905
 20
213.6761772114
 10
346.0797123569
 20
211.409084745
 10
348.1277577537
 20
209.3610393482
 10
349.950288977
 20
207.5385081249
 10
351.5415690797
 20
205.947213121
 10
352.896621074
 20
204.592190929
 10
354.0111534255
 20
203.4776436764
 10
354.8816792625
 20
202.6071178394
 10
355.50544187
 20
201.9833552318
 10
355.8804891961
 20
201.6083228069
 10
356.0056291478
 20
201.4831828552
  0
LWPOLYLINE
  5
8B
330
1F
100
AcDbEntity
  8
0
  6
Continuous
 62
     7
370
    25
100
AcDbPolyline
 90
       29
 70
   128
 43
0.0
 10
196.9066016334
 20
360.5821954685
 10
197.0317490357
 20
360.4570555168
 10
197.4067963618
 20
360.0819932896
 10
198.0305589693
 20
359.458230682
 10
198.9010773557
 20
358.5877346474
 10
200.0156097072
 20
357.4731873947
 10
201.3706542509
 20
356.1181354004
 10
202.9619492548
 20
354.5268403965
 10
204.7844804781
 20
352.7043091732
 10
206.8325184243
 20
350.6562935787
 10
209.0996183413
 20
348.38917131
 10
211.5786500233
 20
345.9101545292
 10
214.2618052619
 20
343.22699184
 10
217.1406425494
 20
340.348147102
 10
220.2061168807
 20
337.2826802212
 10
223.4485723036
 20
334.0402173477
 10
226.8578089731
 20
330.6309806782
 10
230.4230980533
 20
327.0656990486
 10
234.1332264202
 20
323.3555781322
 10
237.9765115636
 20
319.5122706371
 10
241.9408760923
 20
315.5479359108
 10
246.0138328331
 20
311.4749717194
 10
250.1825742381
 20
307.3062228638
 10
254.4339872855
 20
303.0548023659
 10
258.7546907323
 20
298.7341212707
 10
263.131072368
 20
294.3577098328
 10
267.5494007724
 20
289.9393963295
 10
271.9957433599
 20
285.4930686432
 10
276.4561228412
 20
281.0326742607
  0
LINE
  5
8C
330
1F
100
AcDbEntity
  8
0
  6
Continuous
 62
     1
370
    25
100
AcDbLine
 10
20.9561191457
 20
91.4336519915
 30
0.0
 11
245.9561131852
 21
91.4336519915
 31
0.0
  0
LWPOLYLINE
  5
8D
330
1F
100
AcDbEntity
  8
0
  6
Continuous
 62
     1
370
    25
100
AcDbPolyline
 90
       58
 70
   128
 43
0.0
 10
86.8570893961
 20
250.5326795059
 10
86.9822367984
 20
250.4075395542
 10
87.3572803992
 20
250.0325071293
 10
87.9810430067
 20
249.4087445217
 10
88.8515613931
 20
248.5382186848
 10
89.9660974699
 20
247.4236714321
 10
91.3211457389
 20
246.0686194378
 10
92.9124370175
 20
244.4773244339
 10
94.7349682408
 20
242.6547932106
 10
96.783006187
 20
240.6067776161
 10
99.050106104
 20
238.3396553474
 10
101.5291340607
 20
235.8606385666
 10
104.2122892993
 20
233.1774758774
 10
107.0911321747
 20
230.2986311394
 10
110.1566027808
 20
227.2331642586
 10
113.3990582037
 20
223.9907311874
 10
116.8082930105
 20
220.5814945179
 10
120.3735839533
 20
217.016183086
 10
124.0837104576
 20
213.3060621696
 10
127.9270016546
 20
209.4627844768
 10
131.8913631565
 20
205.4984199482
 10
135.9643226913
 20
201.4254557568
 10
140.1330647948
 20
197.2567069012
 10
144.3844731855
 20
193.0052864033
 10
148.7051710444
 20
188.6846053081
 10
153.0815657186
 20
184.3082087713
 10
157.4998829472
 20
179.889895268
 10
161.9462273973
 20
175.4435526806
 10
166.4066031533
 20
170.9831731993
 10
170.8669789093
 20
166.5227937179
 10
175.3133214968
 20
162.0764511305
 10
179.7316424506
 20
157.6581376272
 10
184.1080352622
 20
153.2817410904
 10
188.4287349838
 20
148.9610450941
 10
192.6801405805
 20
144.7096394974
 10
196.8488819855
 20
140.5408906418
 10
200.9218461769
 20
136.4679264503
 10
204.886203255
 20
132.5035619217
 10
208.729495849
 20
128.6602842289
 10
212.4396242159
 20
124.9501484114
 10
216.0049132961
 20
121.3848667818
 10
219.4141499656
 20
117.9756301123
 10
222.6566053885
 20
114.7331672388
 10
225.7220722693
 20
111.667700358
 10
228.6009170073
 20
108.78885562
 10
231.2840722459
 20
106.1057078319
 10
233.7631039279
 20
103.6266761499
 10
236.0302038449
 20
101.3595687824
 10
238.0782343405
 20
99.3115382868
 10
239.9007730144
 20
97.4890070635
 10
241.4920605677
 20
95.8977120596
 10
242.8471051114
 20
94.5426600653
 10
243.9616449135
 20
93.4281277138
 10
244.8321632999
 20
92.557616778
 10
245.4559259074
 20
91.9338541704
 10
245.8309732335
 20
91.5588068443
 10
245.9561131852
 20
91.4336519915
 10
245.9561131852
 20
91.4336519915
  0
LINE
  5
8E
330
1F
100
AcDbEntity
  8
0
  6
Continuous
 62
     7
370
    25
100
AcDbLine
 10
-340.3469898772
 20
281.0326742607
 30
0.0
 11
-340.3469898772
 21
170.9831731993
 31
0.0
  0
LINE
  5
8F
330
1F
100
AcDbEntity
  8
0
  6
Continuous
 62
     7
370
    25
100
AcDbLine
 10
-115.3469958377
 20
170.9831731993
 30
0.0
 11
-115.3469958377
 21
281.0326742607
 31
0.0
  0
LINE
  5
90
330
1F
100
AcDbEntity
  8
0
  6
Continuous
 62
     7
370
    25
100
AcDbLine
 10
-340.3469898772
 20
170.9831731993
 30
0.0
 11
-340.3469898772
 21
91.4336519915
 31
0.0
  0
LINE
  5
91
330
1F
100
AcDbEntity
  8
0
  6
Continuous
 62
     7
370
    25
100
AcDbLine
 10
-115.3469958377
 20
91.4336519915
 30
0.0
 11
-115.3469958377
 21
170.9831731993
 31
0.0
  0
LINE
  5
92
330
1F
100
AcDbEntity
  8
0
  6
Continuous
 62
     7
370
    25
100
AcDbLine
 10
-340.3469898772
 20
91.4336519915
 30
0.0
 11
-340.3469898772
 21
-59.967316441
 31
0.0
  0
LINE
  5
93
330
1F
100
AcDbEntity
  8
0
  6
Continuous
 62
     7
370
    25
100
AcDbLine
 10
-115.3469958377
 20
-59.967316441
 30
0.0
 11
-115.3469958377
 21
91.4336519915
 31
0.0
  0
LWPOLYLINE
  5
94
330
1F
100
AcDbEntity
  8
0
  6
Continuous
 62
     7
370
    25
100
AcDbPolyline
 90
      113
 70
   128
 43
0.0
 10
-340.3469898772
 20
281.0326742607
 10
-340.1700087857
 20
276.5723096805
 10
-339.6396168542
 20
272.1259521919
 10
-338.7574830127
 20
267.7076386887
 10
-337.5263863277
 20
263.331257053
 10
-335.9501936507
 20
259.0105461555
 10
-334.0338670683
 20
254.75915546
 10
-331.7834415507
 20
250.5904066044
 10
-329.205987699
 20
246.5174424129
 10
-326.309626646
 20
242.5530778843
 10
-323.1034630013
 20
238.7098001915
 10
-319.5975923014
 20
234.9996494728
 10
-315.8030339551
 20
231.4343678432
 10
-311.7317386937
 20
228.0251311737
 10
-307.3965066147
 20
224.7826981026
 10
-302.8109797311
 20
221.7172014194
 10
-297.9895972681
 20
218.8383566814
 10
-292.9475137067
 20
216.1552237945
 10
-287.7006025088
 20
213.6761772114
 10
-282.2653667104
 20
211.409084745
 10
-276.6589128447
 20
209.3610393482
 10
-270.898880161
 20
207.5385081249
 10
-265.0033884716
 20
205.947213121
 10
-258.9909878594
 20
204.592190929
 10
-252.8805972111
 20
203.4776436764
 10
-246.6914427501
 20
202.6071178394
 10
-240.4429965687
 20
201.9833552318
 10
-234.1549179551
 20
201.6083228069
 10
-227.8469928575
 20
201.4831828552
 10
-221.5390677598
 20
201.6083228069
 10
-215.2509891462
 20
201.9833552318
 10
-209.0025429648
 20
202.6071178394
 10
-202.8133885038
 20
203.4776436764
 10
-196.7029978555
 20
204.592190929
 10
-190.6905972433
 20
205.947213121
 10
-184.7951055539
 20
207.5385081249
 10
-179.0350728703
 20
209.3610393482
 10
-173.4286190045
 20
211.409084745
 10
-167.9933832061
 20
213.6761772114
 10
-162.7464720082
 20
216.1552237945
 10
-157.7043884468
 20
218.8383566814
 10
-152.8830059838
 20
221.7172014194
 10
-148.2974791002
 20
224.7826981026
 10
-143.9622470212
 20
228.0251311737
 10
-139.8909517598
 20
231.4343678432
 10
-136.0963934135
 20
234.9996494728
 10
-132.5905227137
 20
238.7098001915
 10
-129.3843590689
 20
242.5530778843
 10
-126.4879980159
 20
246.5174424129
 10
-123.9105441642
 20
250.5904066044
 10
-121.6601186466
 20
254.75915546
 10
-119.7437920642
 20
259.0105461555
 10
-118.1675993872
 20
263.331257053
 10
-116.9365027022
 20
267.7076386887
 10
-116.0543688607
 20
272.1259521919
 10
-115.5239769292
 20
276.5723096805
 10
-115.3469958377
 20
281.0326742607
 10
-115.5239769292
 20
285.4930686432
 10
-116.0543688607
 20
289.9393963295
 10
-116.9365027022
 20
294.3577098328
 10
-118.1675993872
 20
298.7341212707
 10
-119.7437920642
 20
303.0548023659
 10
-121.6601186466
 20
307.3062228638
 10
-123.9105441642
 20
311.4749717194
 10
-126.4879980159
 20
315.5479359108
 10
-129.3843590689
 20
319.5122706371
 10
-132.5905227137
 20
323.3555781322
 10
-136.0963934135
 20
327.0656990486
 10
-139.8909517598
 20
330.6309806782
 10
-143.9622470212
 20
334.0402173477
 10
-148.2974791002
 20
337.2826802212
 10
-152.8830059838
 20
340.348147102
 10
-157.7043884468
 20
343.22699184
 10
-162.7464720082
 20
345.9101545292
 10
-167.9933832061
 20
348.38917131
 10
-173.4286190045
 20
350.6562935787
 10
-179.0350728703
 20
352.7043091732
 10
-184.7951055539
 20
354.5268403965
 10
-190.6905972433
 20
356.1181354004
 10
-196.7029978555
 20
357.4731873947
 10
-202.8133885038
 20
358.5877346474
 10
-209.0025429648
 20
359.458230682
 10
-215.2509891462
 20
360.0819932896
 10
-221.5390677598
 20
360.4570555168
 10
-227.8469928575
 20
360.5821954685
 10
-234.1549179551
 20
360.4570555168
 10
-240.4429965687
 20
360.0819932896
 10
-246.6914427501
 20
359.458230682
 10
-252.8805972111
 20
358.5877346474
 10
-258.9909878594
 20
357.4731873947
 10
-265.0033884716
 20
356.1181354004
 10
-270.898880161
 20
354.5268403965
 10
-276.6589128447
 20
352.7043091732
 10
-282.2653667104
 20
350.6562935787
 10
-287.7006025088
 20
348.38917131
 10
-292.9475137067
 20
345.9101545292
 10
-297.9895972681
 20
343.22699184
 10
-302.8109797311
 20
340.348147102
 10
-307.3965066147
 20
337.2826802212
 10
-311.7317386937
 20
334.0402173477
 10
-315.8030339551
 20
330.6309806782
 10
-319.5975923014
 20
327.0656990486
 10
-323.1034630013
 20
323.3555781322
 10
-326.309626646
 20
319.5122706371
 10
-329.205987699
 20
315.5479359108
 10
-331.7834415507
 20
311.4749717194
 10
-334.0338670683
 20
307.3062228638
 10
-335.9501936507
 20
303.0548023659
 10
-337.5263863277
 20
298.7341212707
 10
-338.7574830127
 20
294.3577098328
 10
-339.6396168542
 20
289.9393963295
 10
-340.1700087857
 20
285.4930686432
 10
-340.3469898772
 20
281.0326742607
  0
LWPOLYLINE
  5
95
330
1F
100
AcDbEntity
  8
0
  6
Continuous
 62
     7
370
    25
100
AcDbPolyline
 90
      102
 70
   128
 43
0.0
 10
-319.8469930363
 20
281.0326742607
 10
-319.6690284681
 20
285.077058025
 10
-319.1358202171
 20
289.10579557
 10
-318.2494320941
 20
293.1032704788
 10
-317.0132988167
 20
297.0540749508
 10
-315.432196207
 20
300.9428905922
 10
-313.5122486424
 20
304.7546672302
 10
-311.2608694506
 20
308.4746527153
 10
-308.6867832613
 20
312.0885121303
 10
-305.7999440503
 20
315.5821787792
 10
-302.6115202379
 20
318.9422118145
 10
-299.1338499856
 20
322.1555876213
 10
-295.3803741407
 20
325.2098488289
 10
-291.3656362367
 20
328.0931937176
 10
-287.1051521075
 20
330.7944762188
 10
-282.615409888
 20
333.3032357174
 10
-277.9137768817
 20
335.6097566563
 10
-273.0184474063
 20
337.7051579433
 10
-267.9483608377
 20
339.5813035446
 10
-262.723127104
 20
341.2309216934
 10
-257.3629633558
 20
342.6476346928
 10
-251.8886101466
 20
343.8259887176
 10
-246.3212438893
 20
344.7614240127
 10
-240.6824042124
 20
345.4502748924
 10
-234.9939068814
 20
345.8899187523
 10
-229.2777595145
 20
346.0786270576
 10
-223.5560768318
 20
346.0157143551
 10
-217.8509949741
 20
345.7013892609
 10
-212.1845853549
 20
345.1368438679
 10
-206.5787703764
 20
344.3243133503
 10
-201.0552396101
 20
343.266926952
 10
-195.635361321
 20
341.9687675911
 10
-190.3400995803
 20
340.4348420578
 10
-185.1899490726
 20
338.6711108166
 10
-180.2048289251
 20
336.6843985992
 10
-175.4040249658
 20
334.4823646027
 10
-170.8061152172
 20
332.073532291
 10
-166.4288842154
 20
329.4672595936
 10
-162.2892671299
 20
326.673589893
 10
-158.4032827091
 20
323.7033414322
 10
-154.7859587741
 20
320.5680179077
 10
-151.4512949657
 20
317.2797488647
 10
-148.4121956897
 20
313.8512300926
 10
-145.6804105115
 20
310.2957534271
 10
-143.2665118051
 20
306.6270577389
 10
-141.1798425984
 20
302.8593289333
 10
-139.4284644198
 20
299.0071701485
 10
-138.0191647482
 20
295.0854825455
 10
-136.9573899579
 20
291.1094057041
 10
-136.2472527695
 20
287.0943474251
 10
-135.8914949966
 20
283.0558347183
 10
-135.8914949966
 20
279.0095138031
 10
-136.2472527695
 20
274.9710010963
 10
-136.9573899579
 20
270.9559726196
 10
-138.0191647482
 20
266.9798957783
 10
-139.4284644198
 20
263.0582081753
 10
-141.1798425984
 20
259.2060493904
 10
-143.2665118051
 20
255.4383205849
 10
-145.6804105115
 20
251.7696248966
 10
-148.4121956897
 20
248.2141482311
 10
-151.4512949657
 20
244.785629459
 10
-154.7859587741
 20
241.497360416
 10
-158.4032827091
 20
238.3620070892
 10
-162.2892671299
 20
235.3917884308
 10
-166.4288842154
 20
232.5981187302
 10
-170.8061152172
 20
229.9918162304
 10
-175.4040249658
 20
227.5830137211
 10
-180.2048289251
 20
225.3809797245
 10
-185.1899490726
 20
223.3942675072
 10
-190.3400995803
 20
221.6305362659
 10
-195.635361321
 20
220.0966107326
 10
-201.0552396101
 20
218.7984513718
 10
-206.5787703764
 20
217.7410351711
 10
-212.1845853549
 20
216.9285046535
 10
-217.8509949741
 20
216.3639890629
 10
-223.5560768318
 20
216.0496639686
 10
-229.2777595145
 20
215.9867214638
 10
-234.9939068814
 20
216.1754595714
 10
-240.6824042124
 20
216.6151034313
 10
-246.3212438893
 20
217.303954311
 10
-251.8886101466
 20
218.2393598038
 10
-257.3629633558
 20
219.4177138287
 10
-262.723127104
 20
220.8344566303
 10
-267.9483608377
 20
222.4840747791
 10
-273.0184474063
 20
224.3601905781
 10
-277.9137768817
 20
226.4555918651
 10
-282.615409888
 20
228.7621426063
 10
-287.1051521075
 20
231.2709021049
 10
-291.3656362367
 20
233.9721846062
 10
-295.3803741407
 20
236.8555294948
 10
-299.1338499856
 20
239.9097907024
 10
-302.6115202379
 20
243.1231367069
 10
-305.7999440503
 20
246.4831697422
 10
-308.6867832613
 20
249.9768661934
 10
-311.2608694506
 20
253.5906958061
 10
-313.5122486424
 20
257.3107110935
 10
-315.432196207
 20
261.1224877315
 10
-317.0132988167
 20
265.0113033729
 10
-318.2494320941
 20
268.9620780426
 10
-319.1358202171
 20
272.9595827537
 10
-319.6690284681
 20
276.9883202988
 10
-319.8469930363
 20
281.0326742607
  0
LINE
  5
96
330
1F
100
AcDbEntity
  8
0
  6
Continuous
 62
     7
370
    25
100
AcDbLine
 10
-340.3469898772
 20
-59.967316441
 30
0.0
 11
-115.3469958377
 21
-59.967316441
 31
0.0
  0
LWPOLYLINE
  5
97
330
1F
100
AcDbEntity
  8
0
  6
Continuous
 62
     1
370
    25
100
AcDbPolyline
 90
       29
 70
   128
 43
0.0
 10
-227.8469928575
 20
91.4336519915
 10
-221.5390677598
 20
91.5588068443
 10
-215.2509891462
 20
91.9338541704
 10
-209.0025429648
 20
92.557616778
 10
-202.8133885038
 20
93.4281277138
 10
-196.7029978555
 20
94.5426600653
 10
-190.6905972433
 20
95.8977120596
 10
-184.7951055539
 20
97.4890070635
 10
-179.0350728703
 20
99.3115382868
 10
-173.4286190045
 20
101.3595687824
 10
-167.9933832061
 20
103.6266761499
 10
-162.7464720082
 20
106.1057078319
 10
-157.7043884468
 20
108.78885562
 10
-152.8830059838
 20
111.667700358
 10
-148.2974791002
 20
114.7331672388
 10
-143.9622470212
 20
117.9756301123
 10
-139.8909517598
 20
121.3848667818
 10
-136.0963934135
 20
124.9501484114
 10
-132.5905227137
 20
128.6602842289
 10
-129.3843590689
 20
132.5035619217
 10
-126.4879980159
 20
136.4679264503
 10
-123.9105441642
 20
140.5408906418
 10
-121.6601186466
 20
144.7096394974
 10
-119.7437920642
 20
148.9610450941
 10
-118.1675993872
 20
153.2817410904
 10
-116.9365027022
 20
157.6581376272
 10
-116.0543688607
 20
162.0764511305
 10
-115.5239769292
 20
166.5227937179
 10
-115.3469958377
 20
170.9831731993
  0
LWPOLYLINE
  5
98
330
1F
100
AcDbEntity
  8
0
  6
Continuous
 62
     1
370
    25
100
AcDbPolyline
 90
       29
 70
   128
 43
0.0
 10
-340.3469898772
 20
170.9831731993
 10
-340.1700087857
 20
166.5227937179
 10
-339.6396168542
 20
162.0764511305
 10
-338.7574830127
 20
157.6581376272
 10
-337.5263863277
 20
153.2817410904
 10
-335.9501936507
 20
148.9610450941
 10
-334.0338670683
 20
144.7096394974
 10
-331.7834415507
 20
140.5408906418
 10
-329.205987699
 20
136.4679264503
 10
-326.309626646
 20
132.5035619217
 10
-323.1034630013
 20
128.6602842289
 10
-319.5975923014
 20
124.9501484114
 10
-315.8030339551
 20
121.3848667818
 10
-311.7317386937
 20
117.9756301123
 10
-307.3965066147
 20
114.7331672388
 10
-302.8109797311
 20
111.667700358
 10
-297.9895972681
 20
108.78885562
 10
-292.9475137067
 20
106.1057078319
 10
-287.7006025088
 20
103.6266761499
 10
-282.2653667104
 20
101.3595687824
 10
-276.6589128447
 20
99.3115382868
 10
-270.898880161
 20
97.4890070635
 10
-265.0033884716
 20
95.8977120596
 10
-258.9909878594
 20
94.5426600653
 10
-252.8805972111
 20
93.4281277138
 10
-246.6914427501
 20
92.557616778
 10
-240.4429965687
 20
91.9338541704
 10
-234.1549179551
 20
91.5588068443
 10
-227.8469928575
 20
91.4336519915
  0
ARC
  5
99
330
1F
100
AcDbEntity
  8
0
  6
Continuous
 62
     1
370
    25
100
AcDbCircle
 10
-227.8469928575
 20
112.0186254607
 30
0.0
 40
124.1052543576725
100
AcDbArc
 50
66.7061680651
 51
113.2938319349
  0
LINE
  5
9A
330
1F
100
AcDbEntity
  8
0
  6
Continuous
 62
     1
370
    25
100
AcDbLine
 10
-227.8469928575
 20
91.4336519915
 30
0.0
 11
-115.3469958377
 21
91.4336519915
 31
0.0
  0
LINE
  5
9B
330
1F
100
AcDbEntity
  8
0
  6
Continuous
 62
     1
370
    25
100
AcDbLine
 10
-340.3469898772
 20
91.4336519915
 30
0.0
 11
-227.8469928575
 21
91.4336519915
 31
0.0
  0
LINE
  5
9C
330
1F
100
AcDbEntity
  8
0
  6
Continuous
 62
     7
370
    25
100
AcDbLine
 10
481.0586187731
 20
91.4336519915
 30
0.0
 11
481.0586187731
 21
-59.967316441
 31
0.0
  0
LINE
  5
9D
330
1F
100
AcDbEntity
  8
0
  6
Continuous
 62
     7
370
    25
100
AcDbLine
 10
706.0586128126
 20
-59.967316441
 30
0.0
 11
706.0586128126
 21
91.4336519915
 31
0.0
  0
LINE
  5
9E
330
1F
100
AcDbEntity
  8
0
  6
Continuous
 62
     7
370
    25
100
AcDbLine
 10
706.0586128126
 20
91.4336519915
 30
0.0
 11
706.0586128126
 21
170.9831731993
 31
0.0
  0
LINE
  5
9F
330
1F
100
AcDbEntity
  8
0
  6
Continuous
 62
     7
370
    25
100
AcDbLine
 10
481.0586187731
 20
170.9831731993
 30
0.0
 11
481.0586187731
 21
91.4336519915
 31
0.0
  0
LINE
  5
A0
330
1F
100
AcDbEntity
  8
0
  6
Continuous
 62
     7
370
    25
100
AcDbLine
 10
481.0586187731
 20
281.0326742607
 30
0.0
 11
481.0586187731
 21
170.9831731993
 31
0.0
  0
LINE
  5
A1
330
1F
100
AcDbEntity
  8
0
  6
Continuous
 62
     7
370
    25
100
AcDbLine
 10
706.0586128126
 20
170.9831731993
 30
0.0
 11
706.0586128126
 21
281.0326742607
 31
0.0
  0
LINE
  5
A2
330
1F
100
AcDbEntity
  8
0
  6
Continuous
 62
     7
370
    25
100
AcDbLine
 10
481.0586187731
 20
-59.967316441
 30
0.0
 11
706.0586128126
 21
-59.967316441
 31
0.0
  0
LWPOLYLINE
  5
A3
330
1F
100
AcDbEntity
  8
0
  6
Continuous
 62
     7
370
    25
100
AcDbPolyline
 90
       57
 70
   128
 43
0.0
 10
481.0586187731
 20
281.0326742607
 10
481.2355998646
 20
285.4930686432
 10
481.7659917961
 20
289.9393963295
 10
482.6481256377
 20
294.3577098328
 10
483.8792223226
 20
298.7341212707
 10
485.4554149996
 20
303.0548023659
 10
487.371741582
 20
307.3062228638
 10
489.6221670996
 20
311.4749717194
 10
492.1996209513
 20
315.5479359108
 10
495.0959820043
 20
319.5122706371
 10
498.3021456491
 20
323.3555781322
 10
501.808016349
 20
327.0656990486
 10
505.6025746952
 20
330.6309806782
 10
509.6738699566
 20
334.0402173477
 10
514.0091020357
 20
337.2826802212
 10
518.5946289193
 20
340.348147102
 10
523.4160113822
 20
343.22699184
 10
528.4580949437
 20
345.9101545292
 10
533.7050061416
 20
348.38917131
 10
539.1402419399
 20
350.6562935787
 10
544.7466958057
 20
352.7043091732
 10
550.5067284893
 20
354.5268403965
 10
556.4022201787
 20
356.1181354004
 10
562.414620791
 20
357.4731873947
 10
568.5250114392
 20
358.5877346474
 10
574.7141659002
 20
359.458230682
 10
580.9626120817
 20
360.0819932896
 10
587.2506906952
 20
360.4570555168
 10
593.5586157929
 20
360.5821954685
 10
599.8665408905
 20
360.4570555168
 10
606.1546195041
 20
360.0819932896
 10
612.4030656855
 20
359.458230682
 10
618.5922201465
 20
358.5877346474
 10
624.7026107948
 20
357.4731873947
 10
630.715011407
 20
356.1181354004
 10
636.6105030965
 20
354.5268403965
 10
642.3705357801
 20
352.7043091732
 10
647.9769896458
 20
350.6562935787
 10
653.4122254442
 20
348.38917131
 10
658.6591366421
 20
345.9101545292
 10
663.7012202035
 20
343.22699184
 10
668.5226026665
 20
340.348147102
 10
673.1081295501
 20
337.2826802212
 10
677.4433616291
 20
334.0402173477
 10
681.5146568905
 20
330.6309806782
 10
685.3092152368
 20
327.0656990486
 10
688.8150859367
 20
323.3555781322
 10
692.0212495815
 20
319.5122706371
 10
694.9176106345
 20
315.5479359108
 10
697.4950644862
 20
311.4749717194
 10
699.7454900037
 20
307.3062228638
 10
701.6618165861
 20
303.0548023659
 10
703.2380092632
 20
298.7341212707
 10
704.4691059481
 20
294.3577098328
 10
705.3512397896
 20
289.9393963295
 10
705.8816317211
 20
285.4930686432
 10
706.0586128126
 20
281.0326742607
  0
LINE
  5
A4
330
1F
100
AcDbEntity
  8
0
  6
Continuous
 62
     1
370
    25
100
AcDbLine
 10
481.0586187731
 20
91.4336519915
 30
0.0
 11
706.0586128126
 21
91.4336519915
 31
0.0
  0
LWPOLYLINE
  5
A5
330
1F
100
AcDbEntity
  8
0
  6
Continuous
 62
     1
370
    25
100
AcDbPolyline
 90
       57
 70
   128
 43
0.0
 10
481.0586187731
 20
170.9831731993
 10
481.2355998646
 20
175.4435526806
 10
481.7659917961
 20
179.889895268
 10
482.6481256377
 20
184.3082087713
 10
483.8792223226
 20
188.6846053081
 10
485.4554149996
 20
193.0052864033
 10
487.371741582
 20
197.2567069012
 10
489.6221670996
 20
201.4254557568
 10
492.1996209513
 20
205.4984199482
 10
495.0959820043
 20
209.4627844768
 10
498.3021456491
 20
213.3060621696
 10
501.808016349
 20
217.016183086
 10
505.6025746952
 20
220.5814945179
 10
509.6738699566
 20
223.9907311874
 10
514.0091020357
 20
227.2331642586
 10
518.5946289193
 20
230.2986311394
 10
523.4160113822
 20
233.1774758774
 10
528.4580949437
 20
235.8606385666
 10
533.7050061416
 20
238.3396553474
 10
539.1402419399
 20
240.6067776161
 10
544.7466958057
 20
242.6547932106
 10
550.5067284893
 20
244.4773244339
 10
556.4022201787
 20
246.0686194378
 10
562.414620791
 20
247.4236714321
 10
568.5250114392
 20
248.5382186848
 10
574.7141659002
 20
249.4087445217
 10
580.9626120817
 20
250.0325071293
 10
587.2506906952
 20
250.4075395542
 10
593.5586157929
 20
250.5326795059
 10
599.8665408905
 20
250.4075395542
 10
606.1546195041
 20
250.0325071293
 10
612.4030656855
 20
249.4087445217
 10
618.5922201465
 20
248.5382186848
 10
624.7026107948
 20
247.4236714321
 10
630.715011407
 20
246.0686194378
 10
636.6105030965
 20
244.4773244339
 10
642.3705357801
 20
242.6547932106
 10
647.9769896458
 20
240.6067776161
 10
653.4122254442
 20
238.3396553474
 10
658.6591366421
 20
235.8606385666
 10
663.7012202035
 20
233.1774758774
 10
668.5226026665
 20
230.2986311394
 10
673.1081295501
 20
227.2331642586
 10
677.4433616291
 20
223.9907311874
 10
681.5146568905
 20
220.5814945179
 10
685.3092152368
 20
217.016183086
 10
688.8150859367
 20
213.3060621696
 10
692.0212495815
 20
209.4627844768
 10
694.9176106345
 20
205.4984199482
 10
697.4950644862
 20
201.4254557568
 10
699.7454900037
 20
197.2567069012
 10
701.6618165861
 20
193.0052864033
 10
703.2380092632
 20
188.6846053081
 10
704.4691059481
 20
184.3082087713
 10
705.3512397896
 20
179.889895268
 10
705.8816317211
 20
175.4435526806
 10
706.0586128126
 20
170.9831731993
  0
LINE
  5
A6
330
1F
100
AcDbEntity
  8
0
  6
Continuous
 62
     7
370
    25
100
AcDbLine
 10
276.4561228412
 20
666.72130011
 30
0.0
 11
166.4066031533
 21
666.72130011
 31
0.0
  0
LINE
  5
A7
330
1F
100
AcDbEntity
  8
0
  6
Continuous
 62
     7
370
    25
100
AcDbLine
 10
166.4066031533
 20
441.7213060705
 30
0.0
 11
276.4561228412
 21
441.7213060705
 31
0.0
  0
LINE
  5
A8
330
1F
100
AcDbEntity
  8
0
  6
Continuous
 62
     7
370
    25
100
AcDbLine
 10
166.4066031533
 20
666.72130011
 30
0.0
 11
133.4561161655
 21
666.72130011
 31
0.0
  0
LINE
  5
A9
330
1F
100
AcDbEntity
  8
0
  6
Continuous
 62
     7
370
    25
100
AcDbLine
 10
133.4561161655
 20
441.7213060705
 30
0.0
 11
166.4066031533
 21
441.7213060705
 31
0.0
  0
CIRCLE
  5
AA
330
1F
100
AcDbEntity
  8
0
  6
Continuous
 62
     7
370
    25
100
AcDbCircle
 10
133.4561161655
 20
554.2213030902
 30
0.0
 40
92.0
  0
CIRCLE
  5
AB
330
1F
100
AcDbEntity
  8
0
  6
Continuous
 62
     7
370
    25
100
AcDbCircle
 10
133.4561161655
 20
554.2213030902
 30
0.0
 40
112.5
  0
LWPOLYLINE
  5
AC
330
1F
100
AcDbEntity
  8
0
  6
Continuous
 62
     7
370
    25
100
AcDbPolyline
 90
       58
 70
   128
 43
0.0
 10
276.4561228412
 20
666.72130011
 10
280.9164874213
 20
666.5443190185
 10
285.3628300088
 20
666.013927087
 10
289.7811584132
 20
665.1317932455
 10
294.1575549501
 20
663.9006965605
 10
298.4782509464
 20
662.3245038835
 10
302.7296565431
 20
660.4081773011
 10
306.8983904975
 20
658.1577517835
 10
310.971354689
 20
655.5802979318
 10
314.9357192176
 20
652.6839368788
 10
318.7790118116
 20
649.477773234
 10
322.4891327279
 20
645.9719025342
 10
326.0544292587
 20
642.1773441879
 10
329.4636659282
 20
638.1060489265
 10
332.7061139005
 20
633.7708168475
 10
335.7715807813
 20
629.1852899639
 10
338.6504255193
 20
624.3639075009
 10
341.3335882085
 20
619.3218239395
 10
343.8126198905
 20
614.0749127416
 10
346.0797123569
 20
608.6396769432
 10
348.1277577537
 20
603.0332230774
 10
349.950288977
 20
597.2731903938
 10
351.5415690797
 20
591.3776987044
 10
352.896621074
 20
585.3652980922
 10
354.0111534255
 20
579.2549074439
 10
354.8816792625
 20
573.0657529829
 10
355.50544187
 20
566.8173068015
 10
355.8804891961
 20
560.5292281879
 10
356.0056291478
 20
554.2213030902
 10
355.8804891961
 20
547.9133779926
 10
355.50544187
 20
541.625299379
 10
354.8816792625
 20
535.3768531976
 10
354.0111534255
 20
529.1876987366
 10
352.896621074
 20
523.0773080883
 10
351.5415690797
 20
517.0649074761
 10
349.950288977
 20
511.1694157866
 10
348.1277577537
 20
505.409383103
 10
346.0797123569
 20
499.8029292373
 10
343.8126198905
 20
494.3676934389
 10
341.3335882085
 20
489.120782241
 10
338.6504255193
 20
484.0786986796
 10
335.7715807813
 20
479.2573162166
 10
332.7061139005
 20
474.671789333
 10
329.4636659282
 20
470.336557254
 10
326.0544292587
 20
466.2652619926
 10
322.4891327279
 20
462.4707036463
 10
318.7790118116
 20
458.9648329464
 10
314.9357192176
 20
455.7586693017
 10
310.971354689
 20
452.8623082487
 10
306.8983904975
 20
450.284854397
 10
302.7296565431
 20
448.0344288794
 10
298.4782509464
 20
446.118102297
 10
294.1575549501
 20
444.54190962
 10
289.7811584132
 20
443.310812935
 10
285.3628300088
 20
442.4286790935
 10
280.9164874213
 20
441.898287162
 10
276.4561228412
 20
441.7213060705
 10
276.4561228412
 20
441.7213060705
  0
ARC
  5
AD
330
1F
100
AcDbEntity
  8
0
  6
Continuous
 62
     7
370
    25
100
AcDbCircle
 10
337.8967566772
 20
554.2213030902
 30
0.0
 40
126.5267926767778
100
AcDbArc
 50
162.5036669795
 51
197.4963330205
  0
LWPOLYLINE
  5
AE
330
1F
100
AcDbEntity
  8
0
  6
Continuous
 62
     1
370
    25
100
AcDbPolyline
 90
       29
 70
   128
 43
0.0
 10
245.9561131852
 20
554.2213030902
 10
245.8309732335
 20
547.9133779926
 10
245.4559259074
 20
541.625299379
 10
244.8321632999
 20
535.3768531976
 10
243.9616449135
 20
529.1876987366
 10
242.8471051114
 20
523.0773080883
 10
241.4920605677
 20
517.0649074761
 10
239.9007730144
 20
511.1694157866
 10
238.0782343405
 20
505.409383103
 10
236.0302038449
 20
499.8029292373
 10
233.7631039279
 20
494.3676934389
 10
231.2840722459
 20
489.120782241
 10
228.6009170073
 20
484.0786986796
 10
225.7220722693
 20
479.2573162166
 10
222.6566053885
 20
474.671789333
 10
219.4141499656
 20
470.336557254
 10
216.0049132961
 20
466.2652619926
 10
212.4396242159
 20
462.4707036463
 10
208.729495849
 20
458.9648329464
 10
204.886203255
 20
455.7586693017
 10
200.9218461769
 20
452.8623082487
 10
196.8488819855
 20
450.284854397
 10
192.6801405805
 20
448.0344288794
 10
188.4287349838
 20
446.118102297
 10
184.1080352622
 20
444.54190962
 10
179.7316424506
 20
443.310812935
 10
175.3133214968
 20
442.4286790935
 10
170.8669789093
 20
441.898287162
 10
166.4066031533
 20
441.7213060705
  0
LWPOLYLINE
  5
AF
330
1F
100
AcDbEntity
  8
0
  6
Continuous
 62
     1
370
    25
100
AcDbPolyline
 90
       29
 70
   128
 43
0.0
 10
166.4066031533
 20
666.72130011
 10
170.8669789093
 20
666.5443190185
 10
175.3133214968
 20
666.013927087
 10
179.7316424506
 20
665.1317932455
 10
184.1080352622
 20
663.9006965605
 10
188.4287349838
 20
662.3245038835
 10
192.6801405805
 20
660.4081773011
 10
196.8488819855
 20
658.1577517835
 10
200.9218461769
 20
655.5802979318
 10
204.886203255
 20
652.6839368788
 10
208.729495849
 20
649.477773234
 10
212.4396242159
 20
645.9719025342
 10
216.0049132961
 20
642.1773441879
 10
219.4141499656
 20
638.1060489265
 10
222.6566053885
 20
633.7708168475
 10
225.7220722693
 20
629.1852899639
 10
228.6009170073
 20
624.3639075009
 10
231.2840722459
 20
619.3218239395
 10
233.7631039279
 20
614.0749127416
 10
236.0302038449
 20
608.6396769432
 10
238.0782343405
 20
603.0332230774
 10
239.9007730144
 20
597.2731903938
 10
241.4920605677
 20
591.3776987044
 10
242.8471051114
 20
585.3652980922
 10
243.9616449135
 20
579.2549074439
 10
244.8321632999
 20
573.0657529829
 10
245.4559259074
 20
566.8173068015
 10
245.8309732335
 20
560.5292281879
 10
245.9561131852
 20
554.2213030902
  0
LWPOLYLINE
  5
B0
330
1F
100
AcDbEntity
  8
0
  6
Continuous
 62
     1
370
    25
100
AcDbPolyline
 90
       46
 70
   128
 43
0.0
 10
152.7580652344
 20
644.1737049071
 10
150.385219227
 20
643.3876090495
 10
146.4964082422
 20
641.8065064398
 10
142.6846269476
 20
639.8865588752
 10
138.9646214391
 20
637.6351796834
 10
135.3507834444
 20
635.0610934941
 10
131.8570943274
 20
632.1742542831
 10
128.4970707218
 20
628.9858304707
 10
125.2837112131
 20
625.5081602184
 10
122.2294490742
 20
621.7546843735
 10
119.3460985976
 20
617.7399464695
 10
116.644817959
 20
613.4794623403
 10
114.1360547351
 20
608.9897201208
 10
111.8295151698
 20
604.2880871145
 10
109.7341250586
 20
599.3927576391
 10
107.8579887706
 20
594.3226710705
 10
106.2083668965
 20
589.0974373368
 10
104.791638996
 20
583.7372735886
 10
103.6132886964
 20
578.2629203794
 10
102.6778738904
 20
572.6955541221
 10
101.9890099722
 20
567.0567144451
 10
101.5493698376
 20
561.3682171141
 10
101.3606466311
 20
555.6520697472
 10
101.4235742348
 20
549.9303870646
 10
101.7379105049
 20
544.2253052069
 10
102.3024335461
 20
538.5588955877
 10
103.1149659264
 20
532.9530806092
 10
104.1723597753
 20
527.4295498429
 10
105.4705265867
 20
522.0096715538
 10
107.0044446694
 20
516.7144098131
 10
108.7681759107
 20
511.5642593054
 10
110.7549011665
 20
506.5791391579
 10
112.9569295752
 20
501.7783351985
 10
115.3657469856
 20
497.18042545
 10
117.9720289963
 20
492.8031944481
 10
120.7656968343
 20
488.6635773627
 10
123.7359397071
 20
484.7775929419
 10
126.8712669569
 20
481.1602690069
 10
130.1595490384
 20
477.8256051985
 10
133.5880639397
 20
474.7865059225
 10
137.14354727
 20
472.0547207443
 10
140.8122438895
 20
469.6408220378
 10
144.5799596566
 20
467.5541528312
 10
148.4321193727
 20
465.8027746526
 10
152.3538172203
 20
464.393474981
 10
152.7580652344
 20
464.2689012734
  0
INSERT
  5
BC
330
1F
100
AcDbEntity
  8
FORMAT
 62
     7
100
AcDbBlockReference
  2
SW_CENTERMARKSYMBOL_0
 10
133.4561161655
 20
554.2213030902
 30
0.0
  0
LINE
  5
BD
330
1F
100
AcDbEntity
  8
0
  6
Continuous
 62
     7
370
    25
100
AcDbLine
 10
276.4561228412
 20
-168.1542719773
 30
0.0
 11
166.4066031533
 21
-168.1542719773
 31
0.0
  0
LINE
  5
BE
330
1F
100
AcDbEntity
  8
0
  6
Continuous
 62
     7
370
    25
100
AcDbLine
 10
166.4066031533
 20
-393.1542660168
 30
0.0
 11
276.4561228412
 21
-393.1542660168
 31
0.0
  0
LINE
  5
BF
330
1F
100
AcDbEntity
  8
0
  6
Continuous
 62
     7
370
    25
100
AcDbLine
 10
133.4561161655
 20
-393.1542660168
 30
0.0
 11
166.4066031533
 21
-393.1542660168
 31
0.0
  0
LINE
  5
C0
330
1F
100
AcDbEntity
  8
0
  6
Continuous
 62
     7
370
    25
100
AcDbLine
 10
166.4066031533
 20
-168.1542719773
 30
0.0
 11
133.4561161655
 21
-168.1542719773
 31
0.0
  0
LWPOLYLINE
  5
C1
330
1F
100
AcDbEntity
  8
0
  6
Continuous
 62
     7
370
    25
100
AcDbPolyline
 90
      113
 70
   128
 43
0.0
 10
276.4561228412
 20
-393.1542660168
 10
280.9164874213
 20
-392.9772849253
 10
285.3628300088
 20
-392.4468929938
 10
289.7811584132
 20
-391.5647591523
 10
294.1575549501
 20
-390.3336624673
 10
298.4782509464
 20
-388.7574697903
 10
302.7296565431
 20
-386.8411432079
 10
306.8983904975
 20
-384.5907176903
 10
310.971354689
 20
-382.0132638386
 10
314.9357192176
 20
-379.1169027856
 10
318.7790118116
 20
-375.9107391408
 10
322.4891327279
 20
-372.4048684409
 10
326.0544292587
 20
-368.6103100947
 10
329.4636659282
 20
-364.5390148333
 10
332.7061139005
 20
-360.2037827543
 10
335.7715807813
 20
-355.6182558707
 10
338.6504255193
 20
-350.7968734077
 10
341.3335882085
 20
-345.7547898463
 10
343.8126198905
 20
-340.5078786484
 10
346.0797123569
 20
-335.07264285
 10
348.1277577537
 20
-329.4661889842
 10
349.950288977
 20
-323.7061563006
 10
351.5415690797
 20
-317.8106646112
 10
352.896621074
 20
-311.7982639989
 10
354.0111534255
 20
-305.6878733507
 10
354.8816792625
 20
-299.4987188897
 10
355.50544187
 20
-293.2502727083
 10
355.8804891961
 20
-286.9621940947
 10
356.0056291478
 20
-280.654268997
 10
355.8804891961
 20
-274.3463438994
 10
355.50544187
 20
-268.0582652858
 10
354.8816792625
 20
-261.8098191044
 10
354.0111534255
 20
-255.6206646434
 10
352.896621074
 20
-249.5102739951
 10
351.5415690797
 20
-243.4978733829
 10
349.950288977
 20
-237.6023816934
 10
348.1277577537
 20
-231.8423490098
 10
346.0797123569
 20
-226.2358951441
 10
343.8126198905
 20
-220.8006593457
 10
341.3335882085
 20
-215.5537481478
 10
338.6504255193
 20
-210.5116645864
 10
335.7715807813
 20
-205.6902821234
 10
332.7061139005
 20
-201.1047552398
 10
329.4636659282
 20
-196.7695231608
 10
326.0544292587
 20
-192.6982278994
 10
322.4891327279
 20
-188.9036695531
 10
318.7790118116
 20
-185.3977988532
 10
314.9357192176
 20
-182.1916352085
 10
310.971354689
 20
-179.2952741555
 10
306.8983904975
 20
-176.7178203038
 10
302.7296565431
 20
-174.4673947862
 10
298.4782509464
 20
-172.5510682038
 10
294.1575549501
 20
-170.9748755267
 10
289.7811584132
 20
-169.7437788418
 10
285.3628300088
 20
-168.8616450003
 10
280.9164874213
 20
-168.3312530688
 10
276.4561228412
 20
-168.1542719773
 10
271.9957433599
 20
-168.3312530688
 10
267.5494007724
 20
-168.8616450003
 10
263.131072368
 20
-169.7437788418
 10
258.7546907323
 20
-170.9748755267
 10
254.4339872855
 20
-172.5510682038
 10
250.1825742381
 20
-174.4673947862
 10
246.0138328331
 20
-176.7178203038
 10
241.9408760923
 20
-179.2952741555
 10
237.9765115636
 20
-182.1916352085
 10
234.1332264202
 20
-185.3977988532
 10
230.4230980533
 20
-188.9036695531
 10
226.8578089731
 20
-192.6982278994
 10
223.4485723036
 20
-196.7695231608
 10
220.2061168807
 20
-201.1047552398
 10
217.1406425494
 20
-205.6902821234
 10
214.2618052619
 20
-210.5116645864
 10
211.5786500233
 20
-215.5537481478
 10
209.0996183413
 20
-220.8006593457
 10
206.8325184243
 20
-226.2358951441
 10
204.7844804781
 20
-231.8423490098
 10
202.9619492548
 20
-237.6023816934
 10
201.3706542509
 20
-243.4978733829
 10
200.0156097072
 20
-249.5102739951
 10
198.9010773557
 20
-255.6206646434
 10
198.0305589693
 20
-261.8098191044
 10
197.4067963618
 20
-268.0582652858
 10
197.0317490357
 20
-274.3463438994
 10
196.9066016334
 20
-280.654268997
 10
197.0317490357
 20
-286.9621940947
 10
197.4067963618
 20
-293.2502727083
 10
198.0305589693
 20
-299.4987188897
 10
198.9010773557
 20
-305.6878733507
 10
200.0156097072
 20
-311.7982639989
 10
201.3706542509
 20
-317.8106646112
 10
202.9619492548
 20
-323.7061563006
 10
204.7844804781
 20
-329.4661889842
 10
206.8325184243
 20
-335.07264285
 10
209.0996183413
 20
-340.5078786484
 10
211.5786500233
 20
-345.7547898463
 10
214.2618052619
 20
-350.7968734077
 10
217.1406425494
 20
-355.6182558707
 10
220.2061168807
 20
-360.2037827543
 10
223.4485723036
 20
-364.5390148333
 10
226.8578089731
 20
-368.6103100947
 10
230.4230980533
 20
-372.4048684409
 10
234.1332264202
 20
-375.9107391408
 10
237.9765115636
 20
-379.1169027856
 10
241.9408760923
 20
-382.0132638386
 10
246.0138328331
 20
-384.5907176903
 10
250.1825742381
 20
-386.8411432079
 10
254.4339872855
 20
-388.7574697903
 10
258.7546907323
 20
-390.3336624673
 10
263.131072368
 20
-391.5647591523
 10
267.5494007724
 20
-392.4468929938
 10
271.9957433599
 20
-392.9772849253
 10
276.4561228412
 20
-393.1542660168
  0
LWPOLYLINE
  5
C2
330
1F
100
AcDbEntity
  8
0
  6
Continuous
 62
     7
370
    25
100
AcDbPolyline
 90
      102
 70
   128
 43
0.0
 10
276.4561228412
 20
-372.6542691759
 10
272.4117390769
 20
-372.4763046077
 10
268.3830164331
 20
-371.9430963567
 10
264.3855266231
 20
-371.0567082337
 10
260.4347370523
 20
-369.8205749563
 10
256.5459214109
 20
-368.2394723466
 10
252.7341373223
 20
-366.319524782
 10
249.014136936
 20
-364.0681455901
 10
245.4002998727
 20
-361.4940594009
 10
241.9066108721
 20
-358.6072201899
 10
238.5465852874
 20
-355.4187963775
 10
235.3332243818
 20
-351.9411261252
 10
232.2789631742
 20
-348.1876502803
 10
229.3956108349
 20
-344.1729123762
 10
226.6943283337
 20
-339.9124282471
 10
224.1855688351
 20
-335.4226860276
 10
221.8790255445
 20
-330.7210530213
 10
219.7836391586
 20
-325.8257235459
 10
217.9075010079
 20
-320.7556369773
 10
216.2578828591
 20
-315.5304032436
 10
214.8411549586
 20
-310.1702394954
 10
213.6628009337
 20
-304.6958862862
 10
212.7273879903
 20
-299.1285200289
 10
212.0385222095
 20
-293.4896803519
 10
211.5988858002
 20
-287.8011830209
 10
211.4101625937
 20
-282.085035654
 10
211.4730901974
 20
-276.3633529714
 10
211.7874227422
 20
-270.6582711137
 10
212.3519457835
 20
-264.9918614945
 10
213.164476301
 20
-259.386046516
 10
214.2218701499
 20
-253.8625157497
 10
215.5200369614
 20
-248.4426374606
 10
217.0539550441
 20
-243.1473757199
 10
218.8176862853
 20
-237.9972252122
 10
220.8044134038
 20
-233.0121050647
 10
223.0064399498
 20
-228.2113011053
 10
225.4152573603
 20
-223.6133913568
 10
228.0215449589
 20
-219.2361603549
 10
230.8152072089
 20
-215.0965432695
 10
233.7854556697
 20
-211.2105588487
 10
236.9207791942
 20
-207.5932349137
 10
240.2090631383
 20
-204.2585711053
 10
243.6375744599
 20
-201.2194718293
 10
247.1930585759
 20
-198.4876866511
 10
250.8617542642
 20
-196.0737879446
 10
254.6294756192
 20
-193.987118738
 10
258.4816269534
 20
-192.2357405594
 10
262.4033294576
 20
-190.8264408878
 10
266.3793913978
 20
-189.7646660975
 10
270.3944496768
 20
-189.0545289091
 10
274.4329474824
 20
-188.6987711361
 10
278.4792832988
 20
-188.6987711361
 10
282.5177811044
 20
-189.0545289091
 10
286.5328393834
 20
-189.7646660975
 10
290.5089013236
 20
-190.8264408878
 10
294.4306038278
 20
-192.2357405594
 10
298.2827626127
 20
-193.987118738
 10
302.050476517
 20
-196.0737879446
 10
305.7191722053
 20
-198.4876866511
 10
309.2746488708
 20
-201.2194718293
 10
312.7031676429
 20
-204.2585711053
 10
315.991451587
 20
-207.5932349137
 10
319.1267751115
 20
-211.2105588487
 10
322.0970235723
 20
-215.0965432695
 10
324.8906932729
 20
-219.2361603549
 10
327.4969659704
 20
-223.6133913568
 10
329.9057833808
 20
-228.2113011053
 10
332.1078173774
 20
-233.0121050647
 10
334.0945444959
 20
-237.9972252122
 10
335.8582757371
 20
-243.1473757199
 10
337.3921863693
 20
-248.4426374606
 10
338.6903606313
 20
-253.8625157497
 10
339.7477470296
 20
-259.386046516
 10
340.5602924484
 20
-264.9918614945
 10
341.124808039
 20
-270.6582711137
 10
341.4391480344
 20
-276.3633529714
 10
341.5020756381
 20
-282.085035654
 10
341.3133524316
 20
-287.8011830209
 10
340.8737085717
 20
-293.4896803519
 10
340.1848427909
 20
-299.1285200289
 10
339.2494372981
 20
-304.6958862862
 10
338.0710832732
 20
-310.1702394954
 10
336.6543553727
 20
-315.5304032436
 10
335.0047372239
 20
-320.7556369773
 10
333.1285916227
 20
-325.8257235459
 10
331.0332052367
 20
-330.7210530213
 10
328.7266693967
 20
-335.4226860276
 10
326.217894997
 20
-339.9124282471
 10
323.5166273969
 20
-344.1729123762
 10
320.633267607
 20
-348.1876502803
 10
317.5790063995
 20
-351.9411261252
 10
314.3656454938
 20
-355.4187963775
 10
311.0056273597
 20
-358.6072201899
 10
307.5119309085
 20
-361.4940594009
 10
303.8981012958
 20
-364.0681455901
 10
300.1780860084
 20
-366.319524782
 10
296.3663093704
 20
-368.2394723466
 10
292.477493729
 20
-369.8205749563
 10
288.5267041581
 20
-371.0567082337
 10
284.5292143482
 20
-371.9430963567
 10
280.5004917043
 20
-372.4763046077
 10
276.4561228412
 20
-372.6542691759
  0
ARC
  5
C3
330
1F
100
AcDbEntity
  8
0
  6
Continuous
 62
     7
370
    25
100
AcDbCircle
 10
133.4561161655
 20
-280.654268997
 30
0.0
 40
112.5000000000005
100
AcDbArc
 50
90.0
 51
270.0
  0
ARC
  5
C4
330
1F
100
AcDbEntity
  8
0
  6
Continuous
 62
     7
370
    25
100
AcDbCircle
 10
133.4561161655
 20
-280.654268997
 30
0.0
 40
92.00000000000001
100
AcDbArc
 50
335.5767393714
 51
24.4232606286
  0
LWPOLYLINE
  5
C5
330
1F
100
AcDbEntity
  8
0
  6
Continuous
 62
     1
370
    25
100
AcDbPolyline
 90
       57
 70
   128
 43
0.0
 10
166.4066031533
 20
-168.1542719773
 10
161.9462273973
 20
-168.3312530688
 10
157.4998829472
 20
-168.8616450003
 10
153.0815657186
 20
-169.7437788418
 10
148.7051710444
 20
-170.9748755267
 10
144.3844731855
 20
-172.5510682038
 10
140.1330647948
 20
-174.4673947862
 10
135.9643226913
 20
-176.7178203038
 10
131.8913631565
 20
-179.2952741555
 10
127.9270016546
 20
-182.1916352085
 10
124.0837104576
 20
-185.3977988532
 10
120.3735839533
 20
-188.9036695531
 10
116.8082930105
 20
-192.6982278994
 10
113.3990582037
 20
-196.7695231608
 10
110.1566027808
 20
-201.1047552398
 10
107.0911321747
 20
-205.6902821234
 10
104.2122892993
 20
-210.5116645864
 10
101.5291340607
 20
-215.5537481478
 10
99.050106104
 20
-220.8006593457
 10
96.783006187
 20
-226.2358951441
 10
94.7349682408
 20
-231.8423490098
 10
92.9124370175
 20
-237.6023816934
 10
91.3211457389
 20
-243.4978733829
 10
89.9660974699
 20
-249.5102739951
 10
88.8515613931
 20
-255.6206646434
 10
87.9810430067
 20
-261.8098191044
 10
87.3572803992
 20
-268.0582652858
 10
86.9822367984
 20
-274.3463438994
 10
86.8570893961
 20
-280.654268997
 10
86.9822367984
 20
-286.9621940947
 10
87.3572803992
 20
-293.2502727083
 10
87.9810430067
 20
-299.4987188897
 10
88.8515613931
 20
-305.6878733507
 10
89.9660974699
 20
-311.7982639989
 10
91.3211457389
 20
-317.8106646112
 10
92.9124370175
 20
-323.7061563006
 10
94.7349682408
 20
-329.4661889842
 10
96.783006187
 20
-335.07264285
 10
99.050106104
 20
-340.5078786484
 10
101.5291340607
 20
-345.7547898463
 10
104.2122892993
 20
-350.7968734077
 10
107.0911321747
 20
-355.6182558707
 10
110.1566027808
 20
-360.2037827543
 10
113.3990582037
 20
-364.5390148333
 10
116.8082930105
 20
-368.6103100947
 10
120.3735839533
 20
-372.4048684409
 10
124.0837104576
 20
-375.9107391408
 10
127.9270016546
 20
-379.1169027856
 10
131.8913631565
 20
-382.0132638386
 10
135.9643226913
 20
-384.5907176903
 10
140.1330647948
 20
-386.8411432079
 10
144.3844731855
 20
-388.7574697903
 10
148.7051710444
 20
-390.3336624673
 10
153.0815657186
 20
-391.5647591523
 10
157.4998829472
 20
-392.4468929938
 10
161.9462273973
 20
-392.9772849253
 10
166.4066031533
 20
-393.1542660168
  0
ARC
  5
C6
330
1F
100
AcDbEntity
  8
0
  6
Continuous
 62
     1
370
    25
100
AcDbCircle
 10
107.4117273789
 20
-280.654268997
 30
0.0
 40
124.1331074812223
100
AcDbArc
 50
336.7117030165
 51
23.2882969835
  0
INSERT
  5
D2
330
1F
100
AcDbEntity
  8
FORMAT
 62
     7
100
AcDbBlockReference
  2
SW_CENTERMARKSYMBOL_1
 10
133.4561161655
 20
-280.654268997
 30
0.0
  0
LINE
  5
D3
330
1F
100
AcDbEntity
  8
0
  6
Continuous
 62
     7
370
    25
100
AcDbLine
 10
438.6901877679
 20
-372.8950627294
 30
0.0
 11
438.6901877679
 21
-496.5201324135
 31
0.0
  0
LINE
  5
D4
330
1F
100
AcDbEntity
  8
0
  6
Continuous
 62
     7
370
    25
100
AcDbLine
 10
663.6901902392
 20
-496.5201324135
 30
0.0
 11
663.6901902392
 21
-372.8950627294
 31
0.0
  0
LINE
  5
D5
330
1F
100
AcDbEntity
  8
0
  6
Continuous
 62
     7
370
    25
100
AcDbLine
 10
554.878596694
 20
-103.4565473454
 30
0.0
 11
477.0618416418
 21
-238.2391006084
 31
0.0
  0
LINE
  5
D6
330
1F
100
AcDbEntity
  8
0
  6
Continuous
 62
     7
370
    25
100
AcDbLine
 10
671.9175606332
 20
-350.7391194811
 30
0.0
 11
749.7343196367
 21
-215.9565396024
 31
0.0
  0
SPLINE
  5
D7
330
1F
100
AcDbEntity
  8
0
  6
Continuous
 62
     7
370
    25
100
AcDbSpline
210
0.0
220
0.0
230
1.0
 70
     8
 71
     3
 72
    25
 73
    21
 74
     0
 42
0.000000001
 43
0.00000001
 40
0.0
 40
0.0
 40
0.0
 40
0.0
 40
0.0341618056570446
 40
0.0928963512044473
 40
0.1516933210663488
 40
0.2105845250436172
 40
0.2696041972728189
 40
0.3287843611164458
 40
0.3881543378073136
 40
0.4477389622414088
 40
0.5075567951969183
 40
0.5676187619423685
 40
0.6279249624080716
 40
0.6884629399961909
 40
0.7492051201491621
 40
0.8101068278270028
 40
0.8710990770668692
 40
0.9320780302460391
 40
0.9885668992256368
 40
1.0
 40
1.0
 40
1.0
 40
1.0
 10
477.061841641834
 20
-238.2391006083663
 30
0.0
 10
476.2441955543226
 20
-239.6712273395243
 30
0.0
 10
474.020766884628
 20
-243.5656159770144
 30
0.0
 10
470.5588267196383
 20
-250.0174817593459
 30
0.0
 10
466.7350917983802
 20
-257.6164462731215
 30
0.0
 10
463.1278743447933
 20
-265.3213398353502
 30
0.0
 10
459.7383617042582
 20
-273.1246611150668
 30
0.0
 10
456.5728723739595
 20
-281.0218347067375
 30
0.0
 10
453.6371064712148
 20
-289.0073783883589
 30
0.0
 10
450.9377238594486
 20
-297.075650623421
 30
0.0
 10
448.4819665127704
 20
-305.2203834224485
 30
0.0
 10
446.2777663768085
 20
-313.4344201265632
 30
0.0
 10
444.3336787869861
 20
-321.709430639447
 30
0.0
 10
442.6587048617592
 20
-330.0354915342995
 30
0.0
 10
441.2621688220082
 20
-338.4008102152421
 30
0.0
 10
440.1536083524826
 20
-346.7910899497977
 30
0.0
 10
439.3414337265377
 20
-355.1886952310759
 30
0.0
 10
438.8483850458068
 20
-363.3723918833094
 30
0.0
 10
438.6984403698794
 20
-369.2710490278709
 30
0.0
 10
438.6913767635178
 20
-372.3729320882152
 30
0.0
 10
438.6901877679151
 20
-372.8950627294153
 30
0.0
  0
SPLINE
  5
D8
330
1F
100
AcDbEntity
  8
0
  6
Continuous
 62
     7
370
    25
100
AcDbSpline
210
0.0
220
0.0
230
1.0
 70
     8
 71
     3
 72
    22
 73
    18
 74
     0
 42
0.000000001
 43
0.00000001
 40
0.0
 40
0.0
 40
0.0
 40
0.0
 40
0.0158591629901263
 40
0.0916706840976138
 40
0.1651228817767885
 40
0.2367796037004767
 40
0.3071579093429108
 40
0.3767167924675193
 40
0.4458521089467132
 40
0.5148898071630257
 40
0.5840811012372866
 40
0.6535558369258179
 40
0.7234260363741741
 40
0.7937513053511428
 40
0.8645320525476985
 40
0.9357180839723708
 40
1.0
 40
1.0
 40
1.0
 40
1.0
 10
663.6893736440416
 20
-372.9805133569142
 30
0.0
 10
663.6892552576751
 20
-372.9882838309968
 30
0.0
 10
663.6885709492282
 20
-373.0331994848278
 30
0.0
 10
663.6966644552579
 20
-372.8283176323882
 30
0.0
 10
663.7430447236882
 20
-372.3503582626093
 30
0.0
 10
663.8466957769928
 20
-371.5717213190789
 30
0.0
 10
664.0247185017712
 20
-370.5378677415177
 30
0.0
 10
664.2928720620945
 20
-369.2569624985653
 30
0.0
 10
664.6646607710358
 20
-367.7487457188883
 30
0.0
 10
665.1512572313209
 20
-366.0326987128711
 30
0.0
 10
665.7610728508811
 20
-364.1320448249963
 30
0.0
 10
666.4992668045193
 20
-362.0729551368871
 30
0.0
 10
667.3676871014013
 20
-359.8846115973691
 30
0.0
 10
668.3638895970124
 20
-357.5977975927315
 30
0.0
 10
669.4844541899782
 20
-355.2470563057432
 30
0.0
 10
670.6689454845157
 20
-352.9431193908334
 30
0.0
 10
671.5189389912483
 20
-351.4483753876519
 30
0.0
 10
671.9222758118868
 20
-350.7390931529804
 30
0.0
  0
LWPOLYLINE
  5
D9
330
1F
100
AcDbEntity
  8
0
  6
Continuous
 62
     7
370
    25
100
AcDbPolyline
 90
      113
 70
   128
 43
0.0
 10
471.6406782274
 20
-450.59717734
 10
476.2261993691
 20
-448.0945011302
 10
481.0475861289
 20
-445.7441900739
 10
486.0896676169
 20
-443.5536396114
 10
491.3365775203
 20
-441.5297403178
 10
496.7718127138
 20
-439.6788623156
 10
502.3782694793
 20
-438.0068282834
 10
508.1383027754
 20
-436.5188974879
 10
514.0337960425
 20
-435.2197559005
 10
520.0461941308
 20
-434.1134850224
 10
526.1565862759
 20
-433.2035687284
 10
532.3457377101
 20
-432.4928689356
 10
538.594187126
 20
-431.9836240829
 10
544.8822598478
 20
-431.677435445
 10
551.1901890036
 20
-431.5752640906
 10
557.4981181594
 20
-431.677435445
 10
563.7861908812
 20
-431.9836240829
 10
570.034640297
 20
-432.4928689356
 10
576.2237917312
 20
-433.2035687284
 10
582.3341838764
 20
-434.1134850224
 10
588.3465819646
 20
-435.2197559005
 10
594.2420752318
 20
-436.5188974879
 10
600.0021085278
 20
-438.0068282834
 10
605.6085652934
 20
-439.6788623156
 10
611.0438004868
 20
-441.5297403178
 10
616.2907103902
 20
-443.5536396114
 10
621.3327918782
 20
-445.7441900739
 10
626.154178638
 20
-448.0945011302
 10
630.7396997797
 20
-450.59717734
 10
635.0749318615
 20
-453.2443423486
 10
639.1462311584
 20
-456.0276696803
 10
642.9407870039
 20
-458.9384013666
 10
646.4466632789
 20
-461.9673779803
 10
649.6528254116
 20
-465.1050724698
 10
652.5491871343
 20
-468.3416110688
 10
655.1266381423
 20
-471.6668075119
 10
657.377061216
 20
-475.0702033317
 10
659.2933862215
 20
-478.5410868682
 10
660.8695782571
 20
-482.0685411696
 10
662.1006797996
 20
-485.6414622408
 10
662.9828133389
 20
-489.2486153082
 10
663.5132050856
 20
-492.8786424232
 10
663.6901902392
 20
-496.5201324135
 10
663.5132050856
 20
-500.1616224039
 10
662.9828133389
 20
-503.7916495189
 10
662.1006797996
 20
-507.3988025862
 10
660.8695782571
 20
-510.9717236574
 10
659.2933862215
 20
-514.4991779589
 10
657.377061216
 20
-517.9700614954
 10
655.1266381423
 20
-521.3734573152
 10
652.5491871343
 20
-524.6986537582
 10
649.6528254116
 20
-527.9351923573
 10
646.4466632789
 20
-531.0728868467
 10
642.9407870039
 20
-534.1018634604
 10
639.1462311584
 20
-537.0125951468
 10
635.0749318615
 20
-539.7959224784
 10
630.7396997797
 20
-542.443087487
 10
626.154178638
 20
-544.9457636969
 10
621.3327918782
 20
-547.2960747532
 10
616.2907103902
 20
-549.4866252156
 10
611.0438004868
 20
-551.5105245092
 10
605.6085652934
 20
-553.3614025114
 10
600.0021085278
 20
-555.0334365437
 10
594.2420752318
 20
-556.5213673391
 10
588.3465819646
 20
-557.8205089265
 10
582.3341838764
 20
-558.9267798046
 10
576.2237917312
 20
-559.8366960986
 10
570.034640297
 20
-560.5473958914
 10
563.7861908812
 20
-561.0566407441
 10
557.4981181594
 20
-561.3628293821
 10
551.1901890036
 20
-561.4650007365
 10
544.8822598478
 20
-561.3628293821
 10
538.594187126
 20
-561.0566407441
 10
532.3457377101
 20
-560.5473958914
 10
526.1565862759
 20
-559.8366960986
 10
520.0461941308
 20
-558.9267798046
 10
514.0337960425
 20
-557.8205089265
 10
508.1383027754
 20
-556.5213673391
 10
502.3782694793
 20
-555.0334365437
 10
496.7718127138
 20
-553.3614025114
 10
491.3365775203
 20
-551.5105245092
 10
486.0896676169
 20
-549.4866252156
 10
481.0475861289
 20
-547.2960747532
 10
476.2261993691
 20
-544.9457636969
 10
471.6406782274
 20
-542.443087487
 10
467.3054461456
 20
-539.7959224784
 10
463.2341468488
 20
-537.0125951468
 10
459.4395910033
 20
-534.1018634604
 10
455.9337147283
 20
-531.0728868467
 10
452.7275525956
 20
-527.9351923573
 10
449.8311908729
 20
-524.6986537582
 10
447.2537398649
 20
-521.3734573152
 10
445.0033167912
 20
-517.9700614954
 10
443.0869917856
 20
-514.4991779589
 10
441.5107997501
 20
-510.9717236574
 10
440.2796982076
 20
-507.3988025862
 10
439.3975646683
 20
-503.7916495189
 10
438.8671729215
 20
-500.1616224039
 10
438.6901877679
 20
-496.5201324135
 10
438.8671729215
 20
-492.8786424232
 10
439.3975646683
 20
-489.2486153082
 10
440.2796982076
 20
-485.6414622408
 10
441.5107997501
 20
-482.0685411696
 10
443.0869917856
 20
-478.5410868682
 10
445.0033167912
 20
-475.0702033317
 10
447.2537398649
 20
-471.6668075119
 10
449.8311908729
 20
-468.3416110688
 10
452.7275525956
 20
-465.1050724698
 10
455.9337147283
 20
-461.9673779803
 10
459.4395910033
 20
-458.9384013666
 10
463.2341468488
 20
-456.0276696803
 10
467.3054461456
 20
-453.2443423486
 10
471.6406782274
 20
-450.59717734
  0
LWPOLYLINE
  5
DA
330
1F
100
AcDbEntity
  8
0
  6
Continuous
 62
     7
370
    25
100
AcDbPolyline
 90
      102
 70
   128
 43
0.0
 10
486.136365008
 20
-458.9653591967
 10
482.2178322319
 20
-461.3727717347
 10
478.5661416905
 20
-463.916163354
 10
475.195419822
 20
-466.5856941235
 10
472.1187051491
 20
-469.3710329327
 10
469.3479028393
 20
-472.2614080549
 10
466.893728729
 20
-475.2456333781
 10
464.7656895667
 20
-478.3121684724
 10
462.9720039878
 20
-481.4491459619
 10
461.5196183197
 20
-484.6444293106
 10
460.4141512643
 20
-487.8856569222
 10
459.6598780925
 20
-491.1602877601
 10
459.2597227418
 20
-494.4556606542
 10
459.2152235723
 20
-497.7590140697
 10
459.5265544397
 20
-501.0575803889
 10
460.1925220614
 20
-504.3385874322
 10
461.2105396745
 20
-507.5893496987
 10
462.5766665487
 20
-510.7972881348
 10
464.2856237913
 20
-513.9499879205
 10
466.3307996153
 20
-517.0352562545
 10
468.7042835841
 20
-520.0411542893
 10
471.3968837335
 20
-522.9560556764
 10
474.3981884748
 20
-525.768682303
 10
477.6965916197
 20
-528.4681491515
 10
481.2793223436
 20
-531.0440180939
 10
485.1325258581
 20
-533.4863201316
 10
489.241296996
 20
-535.7856051973
 10
493.589730261
 20
-537.9329832138
 10
498.1610123534
 20
-539.9201410114
 10
502.9374554261
 20
-541.7393919399
 10
507.9005774276
 20
-543.3836979184
 10
513.0311752
 20
-544.846699469
 10
518.3094094315
 20
-546.122734345
 10
523.714845486
 20
-547.2068671839
 10
529.2265811607
 20
-548.0949024334
 10
534.8232927846
 20
-548.7834048805
 10
540.4833247801
 20
-549.2697087757
 10
546.1847765909
 20
-549.5519376015
 10
551.9055948786
 20
-549.6289964694
 10
557.6236446451
 20
-549.5005858056
 10
563.3168066977
 20
-549.1672059134
 10
568.9630514053
 20
-548.6301448076
 10
574.5405335295
 20
-547.8914782145
 10
580.0276817866
 20
-546.9540665305
 10
585.4032620672
 20
-545.8215365742
 10
590.6464749018
 20
-544.4982679
 10
595.737046339
 20
-542.9893829137
 10
600.655270093
 20
-541.3007164591
 10
605.3821247643
 20
-539.4388028923
 10
609.8993186206
 20
-537.4108441471
 10
614.1893801468
 20
-535.2246878756
 10
618.23571007
 20
-532.8887913318
 10
622.0226541288
 20
-530.4121915287
 10
625.5355623421
 20
-527.8044710223
 10
628.7608407048
 20
-525.0757159038
 10
631.6860137497
 20
-522.2364857653
 10
634.2997624139
 20
-519.2977614271
 10
636.5919793563
 20
-516.2709190858
 10
638.5537913481
 20
-513.1676626445
 10
640.1776119566
 20
-509.9999993813
 10
641.4571586673
 20
-506.7801874866
 10
642.3874765912
 20
-503.5206797975
 10
642.9649700753
 20
-500.2340873016
 10
643.1874079708
 20
-496.9331274343
 10
643.0539236333
 20
-493.6305693337
 10
642.5650359956
 20
-490.3391912623
 10
641.722641666
 20
-487.0717243413
 10
640.5299912203
 20
-483.8408114928
 10
638.9917023725
 20
-480.6589542155
 10
637.1137257307
 20
-477.5384624028
 10
634.9033289922
 20
-474.4914026394
 10
632.3690613817
 20
-471.5295715898
 10
629.5207312613
 20
-468.6644222447
 10
626.3693547633
 20
-465.9070403513
 10
622.9271235223
 20
-463.2680953709
 10
619.2073526496
 20
-460.7577982802
 10
615.2244425381
 20
-458.3858551906
 10
610.9937929218
 20
-456.1614481495
 10
606.5317735708
 20
-454.0931817268
 10
601.8556531684
 20
-452.1890541218
 10
596.9835130419
 20
-450.4564377744
 10
591.9342086377
 20
-448.9020327946
 10
586.7272763372
 20
-447.5318496646
 10
581.3828557485
 20
-446.3511947923
 10
575.9216278033
 20
-445.3646347757
 10
570.3647133411
 20
-444.5759865181
 10
564.7336177914
 20
-443.9882974594
 10
559.0501310748
 20
-443.6038425347
 10
553.3362275044
 20
-443.4241150506
 10
547.6140315416
 20
-443.4498038743
 10
541.9056597451
 20
-443.6808086412
 10
536.233218137
 20
-444.1162412748
 10
530.6186388835
 20
-444.754413822
 10
525.0836460509
 20
-445.5928582214
 10
519.6496528724
 20
-446.6283308655
 10
514.3376827228
 20
-447.8568217247
 10
509.1682927276
 20
-449.2735862819
 10
504.1614736638
 20
-450.8731364079
 10
499.3366025451
 20
-452.6492859822
 10
494.7123385714
 20
-454.5951622978
 10
490.3065776899
 20
-456.7032383757
 10
486.136365008
 20
-458.9653591967
  0
LWPOLYLINE
  5
DB
330
1F
100
AcDbEntity
  8
0
  6
Continuous
 62
     7
370
    25
100
AcDbPolyline
 90
      113
 70
   128
 43
0.0
 10
572.7569526576
 20
-113.7835853591
 10
576.0360512287
 20
-115.6771605616
 10
579.5551339552
 20
-117.7092859748
 10
583.3031267528
 20
-119.8735303068
 10
587.2682232353
 20
-122.1631003641
 10
591.4379532041
 20
-124.5708197619
 10
595.7991984526
 20
-127.0890650476
 10
600.3382296447
 20
-129.7099573382
 10
605.0407853407
 20
-132.4252254395
 10
609.8920509234
 20
-135.2263275199
 10
614.8767692335
 20
-138.1044419863
 10
619.9792458383
 20
-141.0505556996
 10
625.1834491304
 20
-144.0553392589
 10
630.4729839856
 20
-147.1093751394
 10
635.8312129356
 20
-150.2030329764
 10
641.2412825092
 20
-153.3266307853
 10
646.6861653797
 20
-156.470276783
 10
652.1487393899
 20
-159.6240853565
 10
657.6118059913
 20
-162.7781877109
 10
663.0581745382
 20
-165.9226101918
 10
668.4707228734
 20
-169.0474796125
 10
673.8324052307
 20
-172.1429548035
 10
679.1263523342
 20
-175.1993087451
 10
684.3359280323
 20
-178.2068882616
 10
689.444720079
 20
-181.1562911996
 10
694.4366678907
 20
-184.0381968495
 10
699.2960533271
 20
-186.8435431236
 10
704.007594863
 20
-189.5634957586
 10
708.5564587832
 20
-192.1895156098
 10
712.9283480865
 20
-194.7133369771
 10
717.1094926072
 20
-197.12702273
 10
721.0867445043
 20
-199.4229586047
 10
724.847582871
 20
-201.5939288621
 10
728.3801881505
 20
-203.6330984157
 10
731.6734309406
 20
-205.5340915306
 10
734.7169681412
 20
-207.2908648275
 10
737.5012021247
 20
-208.8979270437
 10
740.0173768834
 20
-210.3502120376
 10
742.2575925172
 20
-211.6431601521
 10
744.2147788924
 20
-212.7726786617
 10
745.8827878374
 20
-213.7352680082
 10
747.2563694354
 20
-214.5278377635
 10
748.3312141712
 20
-215.1479012994
 10
749.1039292235
 20
-215.5935620983
 10
749.5720753433
 20
-215.8633646949
 10
749.7341879278
 20
-215.9564893502
 10
749.5897612146
 20
-215.8725969153
 10
749.1392430142
 20
-215.6120204563
 10
748.3840505142
 20
-215.1755310344
 10
747.3265650116
 20
-214.5645171655
 10
745.9701161075
 20
-213.7808905224
 10
744.3189659019
 20
-212.8271498035
 10
742.3783089939
 20
-211.7062468931
 10
740.1542461397
 20
-210.4217541558
 10
737.6537789847
 20
-208.9776910476
 10
734.8847837211
 20
-207.3785819098
 10
731.8559742098
 20
-205.629495506
 10
728.576865102
 20
-203.7359020515
 10
725.0577823754
 20
-201.7038009731
 10
721.3097895779
 20
-199.539556641
 10
717.3447036321
 20
-197.2499561662
 10
713.1749683949
 20
-194.8422641446
 10
708.8137178781
 20
-192.3239975655
 10
704.2746814176
 20
-189.7031083161
 10
699.5721309899
 20
-186.9878371735
 10
694.7208654073
 20
-184.1867594279
 10
689.7361523656
 20
-181.3086175854
 10
684.6336704924
 20
-178.3625312483
 10
679.4294724686
 20
-175.3577446475
 10
674.1399376134
 20
-172.303708767
 10
668.7817033951
 20
-169.2100296366
 10
663.3716285531
 20
-166.0864592039
 10
657.926750951
 20
-162.9428101648
 10
652.4641822092
 20
-159.7889742152
 10
647.0011156077
 20
-156.6348961956
 10
641.5547417925
 20
-153.4904524212
 10
636.1421987257
 20
-150.365604294
 10
630.7805163683
 20
-147.2701291029
 10
625.4865587282
 20
-144.213781244
 10
620.2769882984
 20
-141.2061743515
 10
615.1681962517
 20
-138.2567714134
 10
610.1762537083
 20
-135.374887057
 10
605.3168682719
 20
-132.5695407829
 10
600.6053267361
 20
-129.8495638131
 10
596.0564575475
 20
-127.2235470032
 10
591.6845735126
 20
-124.6997225946
 10
587.5034289918
 20
-122.2860611765
 10
583.5261770947
 20
-119.9901253018
 10
579.7653334597
 20
-117.8191337509
 10
576.2327281802
 20
-115.7799641973
 10
572.9394801217
 20
-113.8789984586
 10
569.8959534578
 20
-112.122219079
 10
567.1117194743
 20
-110.5151568628
 10
564.5955394473
 20
-109.0628505755
 10
562.3553290818
 20
-107.7699237544
 10
560.3981427066
 20
-106.64038091
 10
558.7301284933
 20
-105.6778189396
 10
557.3565416269
 20
-104.8852522257
 10
556.2817021594
 20
-104.2651613136
 10
555.5089923756
 20
-103.8195218081
 10
555.0408462557
 20
-103.5497192116
 10
554.8787284029
 20
-103.4565975977
 10
555.0231603844
 20
-103.5404626564
 10
555.4736733165
 20
-103.8010664915
 10
556.2288658165
 20
-104.2375315786
 10
557.2863460507
 20
-104.8485484889
 10
558.6428002232
 20
-105.6321720906
 10
560.2939556971
 20
-106.585934103
 10
562.2346178735
 20
-107.7068096372
 10
564.458670191
 20
-108.9913327921
 10
566.959137346
 20
-110.4353959002
 10
569.7281326096
 20
-112.0344807032
 10
572.7569526576
 20
-113.7835853591
  0
LWPOLYLINE
  5
DC
330
1F
100
AcDbEntity
  8
0
  6
Continuous
 62
     7
370
    25
100
AcDbPolyline
 90
      102
 70
   128
 43
0.0
 10
587.2526394381
 20
-122.1517672157
 10
584.5186682056
 20
-120.572942528
 10
582.0469662747
 20
-119.1455125962
 10
579.8470851749
 20
-117.8750299695
 10
577.9275333012
 20
-116.7663598227
 10
576.2957337674
 20
-115.8238259572
 10
574.9580033324
 20
-115.0510708747
 10
573.9195313269
 20
-114.4510922697
 10
573.1843164331
 20
-114.0261639382
 10
572.7552088317
 20
-113.7780000311
 10
572.6338680548
 20
-113.7074995324
 10
572.8207629862
 20
-113.8149530991
 10
573.3151823977
 20
-114.0999700493
 10
574.1151928027
 20
-114.5614296883
 10
575.2177148471
 20
-115.1975436565
 10
576.6184811624
 20
-116.0058559253
 10
578.312065342
 20
-116.9832534342
 10
580.2919240875
 20
-118.1259113343
 10
582.5503866725
 20
-119.4294389855
 10
585.0787286995
 20
-120.8888008652
 10
587.8671589286
 20
-122.49835154
 10
590.9048890838
 20
-124.2518394636
 10
594.1801746822
 20
-126.1424792127
 10
597.6803347909
 20
-128.1629993886
 10
601.3918399421
 20
-130.3055412823
 10
605.3003190484
 20
-132.5618453671
 10
609.3906562084
 20
-134.923142931
 10
613.6470249512
 20
-137.3803279325
 10
618.0529596885
 20
-139.92391308
 10
622.5914153128
 20
-142.5440155665
 10
627.2448317347
 20
-145.2305099187
 10
631.9952069817
 20
-147.9730093596
 10
636.8241663447
 20
-150.7609178968
 10
641.7130190137
 20
-153.5834265161
 10
646.6428594929
 20
-156.4296143186
 10
651.5946084307
 20
-159.2884964266
 10
656.5491127188
 20
-162.1490026892
 10
661.4872060777
 20
-165.0000369935
 10
666.3897749117
 20
-167.8306065419
 10
671.2378636756
 20
-170.6297427646
 10
676.0127064852
 20
-173.3866169033
 10
680.6958377524
 20
-176.090555226
 10
685.2691290641
 20
-178.7311211514
 10
689.7148998172
 20
-181.2980757072
 10
694.0159435609
 20
-183.7815022457
 10
698.1556228267
 20
-186.1717942784
 10
702.1179165438
 20
-188.4596950174
 10
705.8875043329
 20
-190.6363399704
 10
709.4497928475
 20
-192.6933451479
 10
712.791010605
 20
-194.6227219012
 10
715.8982185228
 20
-196.4170229274
 10
718.7594100175
 20
-198.0692784008
 10
721.363500468
 20
-199.5731358953
 10
723.7004325824
 20
-200.9227265527
 10
725.7611447885
 20
-202.1128901784
 10
727.5376818684
 20
-203.1389714475
 10
729.0231580809
 20
-203.9970297933
 10
730.2118361861
 20
-204.6837512003
 10
731.099111641
 20
-205.1964512538
 10
731.6815494773
 20
-205.5331572717
 10
731.9569106437
 20
-205.6925748541
 10
731.9241151272
 20
-205.6740665935
 10
731.5832893683
 20
-205.4777524634
 10
730.9357662612
 20
-205.1043151477
 10
729.9840377383
 20
-204.5552646864
 10
728.7317811121
 20
-203.832722511
 10
727.1838590752
 20
-202.9394336227
 10
725.3462512117
 20
-201.8788973935
 10
723.2260671683
 20
-200.6551926693
 10
720.831507141
 20
-199.2730766369
 10
718.1718302657
 20
-197.7378935762
 10
715.2573453982
 20
-196.0555573755
 10
712.0993044297
 20
-194.2326237802
 10
708.70995102
 20
-192.2760873622
 10
705.1023671556
 20
-190.1935484382
 10
701.2905370291
 20
-187.9930552912
 10
697.2891929397
 20
-185.6831490345
 10
693.1138189152
 20
-183.2727197058
 10
688.7805687231
 20
-180.7711292757
 10
684.3062052845
 20
-178.1880549981
 10
679.7080512835
 20
-175.5334730667
 10
675.0038768851
 20
-172.8176546233
 10
670.2118908449
 20
-170.0510997985
 10
665.3506364591
 20
-167.2445384719
 10
660.4389085881
 20
-164.408833697
 10
655.4957259972
 20
-161.5549049034
 10
650.5402022823
 20
-158.6938237109
 10
645.5915037226
 20
-155.8366800945
 10
640.6688018659
 20
-152.9944941766
 10
635.7911102092
 20
-150.1782922652
 10
630.9773131749
 20
-147.3989410882
 10
626.24603967
 20
-144.6672207855
 10
621.6155919634
 20
-141.993662181
 10
617.1038719291
 20
-139.3886380311
 10
612.7283547041
 20
-136.8622261476
 10
608.5059411746
 20
-134.4241850555
 10
604.4530001231
 20
-132.0839661656
 10
600.5851838352
 20
-129.8506073039
 10
596.9174755157
 20
-127.732772257
 10
593.4640523108
 20
-125.7386108416
 10
590.2382800398
 20
-123.8758653684
 10
587.2526394381
 20
-122.1517672157
  0
LWPOLYLINE
  5
DD
330
1F
100
AcDbEntity
  8
0
  6
Continuous
 62
     1
370
    25
100
AcDbPolyline
 90
       15
 70
   128
 43
0.0
 10
630.7396997797
 20
-326.9721076559
 10
635.0749318615
 20
-329.6192726645
 10
639.1462311584
 20
-332.4025999962
 10
642.9407870039
 20
-335.3133316825
 10
646.4466632789
 20
-338.3423082962
 10
649.6528254116
 20
-341.4800027857
 10
652.5491871343
 20
-344.7165413847
 10
655.1266381423
 20
-348.0417378278
 10
657.377061216
 20
-351.4451336476
 10
659.2933862215
 20
-354.9160171841
 10
660.8695782571
 20
-358.4434714855
 10
662.1006797996
 20
-362.0163925567
 10
662.9828133389
 20
-365.6235456241
 10
663.5132050856
 20
-369.2535727391
 10
663.6901902392
 20
-372.8950627294
  0
LWPOLYLINE
  5
DE
330
1F
100
AcDbEntity
  8
0
  6
Continuous
 62
     1
370
    25
100
AcDbPolyline
 90
       43
 70
   128
 43
0.0
 10
438.6901877679
 20
-372.8950627294
 10
438.8671729215
 20
-369.2535727391
 10
439.3975646683
 20
-365.6235456241
 10
440.2796982076
 20
-362.0163925567
 10
441.5107997501
 20
-358.4434714855
 10
443.0869917856
 20
-354.9160171841
 10
445.0033167912
 20
-351.4451336476
 10
447.2537398649
 20
-348.0417378278
 10
449.8311908729
 20
-344.7165413847
 10
452.7275525956
 20
-341.4800027857
 10
455.9337147283
 20
-338.3423082962
 10
459.4395910033
 20
-335.3133316825
 10
463.2341468488
 20
-332.4025999962
 10
467.3054461456
 20
-329.6192726645
 10
471.6406782274
 20
-326.9721076559
 10
476.2261993691
 20
-324.4694314461
 10
481.0475861289
 20
-322.1191203898
 10
486.0896676169
 20
-319.9285699273
 10
491.3365775203
 20
-317.9046706337
 10
496.7718127138
 20
-316.0537926315
 10
502.3782694793
 20
-314.3817585993
 10
508.1383027754
 20
-312.8938278038
 10
514.0337960425
 20
-311.5946862164
 10
520.0461941308
 20
-310.4884153383
 10
526.1565862759
 20
-309.5784990443
 10
532.3457377101
 20
-308.8677992515
 10
538.594187126
 20
-308.3585543988
 10
544.8822598478
 20
-308.0523657609
 10
551.1901890036
 20
-307.9501944065
 10
557.4981181594
 20
-308.0523657609
 10
563.7861908812
 20
-308.3585543988
 10
570.034640297
 20
-308.8677992515
 10
576.2237917312
 20
-309.5784990443
 10
582.3341838764
 20
-310.4884153383
 10
588.3465819646
 20
-311.5946862164
 10
594.2420752318
 20
-312.8938278038
 10
600.0021085278
 20
-314.3817585993
 10
605.6085652934
 20
-316.0537926315
 10
611.0438004868
 20
-317.9046706337
 10
616.2907103902
 20
-319.9285699273
 10
621.3327918782
 20
-322.1191203898
 10
626.154178638
 20
-324.4694314461
 10
630.7396997797
 20
-326.9721076559
  0
LWPOLYLINE
  5
DF
330
1F
100
AcDbEntity
  8
0
  6
Continuous
 62
     1
370
    25
100
AcDbPolyline
 90
       19
 70
   128
 43
0.0
 10
630.7396997797
 20
-326.9721076559
 10
635.111589083
 20
-329.4959168558
 10
639.2927336038
 20
-331.9095904413
 10
643.2699855009
 20
-334.205526316
 10
647.0308291359
 20
-336.3765056995
 10
650.5634291471
 20
-338.4156904618
 10
653.8566772055
 20
-340.3166562006
 10
656.9002091378
 20
-342.0734325388
 10
659.6844378529
 20
-343.6804977964
 10
662.2006231483
 20
-345.132788875
 10
664.4408335137
 20
-346.4257278634
 10
666.3980198889
 20
-347.5552585404
 10
668.0660341023
 20
-348.5178326782
 10
669.4396157004
 20
-349.3104024334
 10
670.5144604361
 20
-349.9304903042
 10
671.28717022
 20
-350.3761298097
 10
671.7553163399
 20
-350.6459324062
 10
671.9174341927
 20
-350.7390540201
 10
671.9175606332
 20
-350.7391194811
  0
LWPOLYLINE
  5
E0
330
1F
100
AcDbEntity
  8
0
  6
Continuous
 62
     1
370
    25
100
AcDbPolyline
 90
       40
 70
   128
 43
0.0
 10
477.0618416418
 20
-238.2391006084
 10
477.206401381
 20
-238.3230425351
 10
477.6569185936
 20
-238.5836195643
 10
478.4121089533
 20
-239.0201102218
 10
479.4695911631
 20
-239.6311259916
 10
480.8260458295
 20
-240.4147493082
 10
482.4771980108
 20
-241.3685132214
 10
484.4178562359
 20
-242.4893910367
 10
486.6419177729
 20
-243.7738967017
 10
489.1423770254
 20
-245.2179643719
 10
491.9113736061
 20
-246.817060582
 10
494.9401910199
 20
-248.5661545911
 10
498.2192974936
 20
-250.459737399
 10
501.7383802201
 20
-252.4918506448
 10
505.4863677493
 20
-254.6560980182
 10
509.4514615977
 20
-256.9456817636
 10
513.6211942007
 20
-259.3533874732
 10
517.9824394491
 20
-261.8716449263
 10
522.5214759096
 20
-264.4925341756
 10
527.2240316056
 20
-267.2078022769
 10
532.0752919199
 20
-270.0089073986
 10
537.06001023
 20
-272.887021865
 10
542.1624921032
 20
-275.8331203695
 10
547.3666901269
 20
-278.8379069703
 10
552.6562249822
 20
-281.8919428508
 10
558.0144592005
 20
-284.9856219812
 10
563.4245287741
 20
-288.1091954552
 10
568.8694116446
 20
-291.252841453
 10
574.3319803864
 20
-294.4066652352
 10
579.7950469879
 20
-297.5607554222
 10
585.2414208031
 20
-300.7051870292
 10
590.6539586016
 20
-303.8300503652
 10
596.0156462273
 20
-306.9255225149
 10
601.3095985991
 20
-309.9818734151
 10
606.5191690289
 20
-312.9894803077
 10
611.6279663439
 20
-315.938868037
 10
616.6199088872
 20
-318.8207645609
 10
621.4792943237
 20
-321.6261108349
 10
626.1908358595
 20
-324.3460756374
 10
630.7396997797
 20
-326.9721076559
  0
ENDSEC
  0
SECTION
  2
OBJECTS
  0
DICTIONARY
  5
C
330
0
100
AcDbDictionary
281
     1
  3
ACAD_GROUP
350
D
  3
ACAD_LAYOUT
350
1A
  3
ACAD_MLINESTYLE
350
17
  3
ACAD_PLOTSETTINGS
350
19
  3
ACAD_PLOTSTYLENAME
350
E
  3
ACAD_SCALELIST
350
47
  0
DICTIONARY
  5
D
102
{ACAD_REACTORS
330
C
102
}
330
C
100
AcDbDictionary
281
     1
  0
DICTIONARY
  5
1A
102
{ACAD_REACTORS
330
C
102
}
330
C
100
AcDbDictionary
281
     1
  3
Layout1
350
1E
  3
Layout2
350
26
  3
Model
350
22
  0
DICTIONARY
  5
17
102
{ACAD_REACTORS
330
C
102
}
330
C
100
AcDbDictionary
281
     1
  3
Standard
350
18
  0
DICTIONARY
  5
19
102
{ACAD_REACTORS
330
C
102
}
330
C
100
AcDbDictionary
281
     1
  0
ACDBDICTIONARYWDFLT
  5
E
102
{ACAD_REACTORS
330
C
102
}
330
C
100
AcDbDictionary
281
     1
  3
Normal
350
F
100
AcDbDictionaryWithDefault
340
F
  0
DICTIONARY
  5
47
102
{ACAD_REACTORS
330
C
102
}
330
C
100
AcDbDictionary
281
     1
  3
A0
350
48
  3
A1
350
49
  3
A2
350
4A
  3
A3
350
4B
  3
A4
350
4C
  3
A5
350
4D
  3
A6
350
4E
  3
A7
350
4F
  3
A8
350
50
  3
A9
350
51
  3
B0
350
52
  3
B1
350
53
  3
B2
350
54
  3
B3
350
55
  3
B4
350
56
  3
B5
350
57
  3
B6
350
58
  3
B7
350
59
  3
B8
350
5A
  3
B9
350
5B
  3
C0
350
5C
  3
C1
350
5D
  3
C2
350
5E
  3
C3
350
5F
  3
C4
350
60
  3
C5
350
61
  3
C6
350
62
  3
C7
350
63
  3
C8
350
64
  3
C9
350
65
  3
D0
350
66
  3
D1
350
67
  3
D2
350
68
  0
LAYOUT
  5
1E
102
{ACAD_REACTORS
330
1A
102
}
330
1A
100
AcDbPlotSettings
  1

  2
none_device
  4

  6

 40
0.0
 41
0.0
 42
0.0
 43
0.0
 44
0.0
 45
0.0
 46
0.0
 47
0.0
 48
0.0
 49
0.0
140
0.0
141
0.0
142
1.0
143
1.0
 70
   688
 72
     1
 73
     0
 74
     5
  7

 75
    16
147
1.0
148
0.0
149
0.0
100
AcDbLayout
  1
Layout1
 70
     1
 71
     1
 10
0.0
 20
0.0
 11
420.0
 21
297.0
 12
0.0
 22
0.0
 32
0.0
 14
1.0000000000E+20
 24
1.0000000000E+20
 34
1.0000000000E+20
 15
-1.0000000000E+20
 25
-1.0000000000E+20
 35
-1.0000000000E+20
146
0.0
 13
0.0
 23
0.0
 33
0.0
 16
1.0
 26
0.0
 36
0.0
 17
0.0
 27
1.0
 37
0.0
 76
     0
330
1B
  0
LAYOUT
  5
26
102
{ACAD_REACTORS
330
1A
102
}
330
1A
100
AcDbPlotSettings
  1

  2
none_device
  4

  6

 40
0.0
 41
0.0
 42
0.0
 43
0.0
 44
0.0
 45
0.0
 46
0.0
 47
0.0
 48
0.0
 49
0.0
140
0.0
141
0.0
142
1.0
143
1.0
 70
   688
 72
     1
 73
     0
 74
     5
  7

 75
    16
147
1.0
148
0.0
149
0.0
100
AcDbLayout
  1
Layout2
 70
     1
 71
     2
 10
0.0
 20
0.0
 11
0.0
 21
0.0
 12
0.0
 22
0.0
 32
0.0
 14
0.0
 24
0.0
 34
0.0
 15
0.0
 25
0.0
 35
0.0
146
0.0
 13
0.0
 23
0.0
 33
0.0
 16
1.0
 26
0.0
 36
0.0
 17
0.0
 27
1.0
 37
0.0
 76
     0
330
23
  0
LAYOUT
  5
22
102
{ACAD_REACTORS
330
1A
102
}
330
1A
100
AcDbPlotSettings
  1

  2
none_device
  4
Letter_(8.50_x_11.00_Inches)
  6

 40
6.35
 41
6.35
 42
6.35000508
 43
6.35000508
 44
215.9
 45
279.4
 46
0.0
 47
0.0
 48
0.0
 49
0.0
140
0.0
141
0.0
142
1.0
143
1.0
 70
  1712
 72
     1
 73
     0
 74
     0
  7

 75
     0
147
1.0
148
0.0
149
0.0
100
AcDbLayout
  1
Model
 70
     1
 71
     0
 10
0.0
 20
0.0
 11
279.4
 21
215.9
 12
0.0
 22
0.0
 32
0.0
 14
0.0
 24
0.0
 34
0.0
 15
279.4
 25
215.9
 35
0.0
146
0.0
 13
0.0
 23
0.0
 33
0.0
 16
1.0
 26
0.0
 36
0.0
 17
0.0
 27
1.0
 37
0.0
 76
     0
330
1F
331
29
  0
MLINESTYLE
  5
18
102
{ACAD_REACTORS
330
17
102
}
330
17
100
AcDbMlineStyle
  2
Standard
 70
     0
  3

 62
   256
 51
90.0
 52
90.0
 71
     2
 49
0.5
 62
   256
  6
BYLAYER
 49
-0.5
 62
   256
  6
BYLAYER
  0
ACDBPLACEHOLDER
  5
F
102
{ACAD_REACTORS
330
E
102
}
330
E
  0
SCALE
  5
48
102
{ACAD_REACTORS
330
47
102
}
330
47
100
AcDbScale
 70
     0
300
1:1
140
1.0
141
1.0
290
     1
  0
SCALE
  5
49
102
{ACAD_REACTORS
330
47
102
}
330
47
100
AcDbScale
 70
     0
300
1:2
140
1.0
141
2.0
290
     0
  0
SCALE
  5
4A
102
{ACAD_REACTORS
330
47
102
}
330
47
100
AcDbScale
 70
     0
300
1:4
140
1.0
141
4.0
290
     0
  0
SCALE
  5
4B
102
{ACAD_REACTORS
330
47
102
}
330
47
100
AcDbScale
 70
     0
300
1:5
140
1.0
141
5.0
290
     0
  0
SCALE
  5
4C
102
{ACAD_REACTORS
330
47
102
}
330
47
100
AcDbScale
 70
     0
300
1:8
140
1.0
141
8.0
290
     0
  0
SCALE
  5
4D
102
{ACAD_REACTORS
330
47
102
}
330
47
100
AcDbScale
 70
     0
300
1:10
140
1.0
141
10.0
290
     0
  0
SCALE
  5
4E
102
{ACAD_REACTORS
330
47
102
}
330
47
100
AcDbScale
 70
     0
300
1:16
140
1.0
141
16.0
290
     0
  0
SCALE
  5
4F
102
{ACAD_REACTORS
330
47
102
}
330
47
100
AcDbScale
 70
     0
300
1:20
140
1.0
141
20.0
290
     0
  0
SCALE
  5
50
102
{ACAD_REACTORS
330
47
102
}
330
47
100
AcDbScale
 70
     0
300
1:30
140
1.0
141
30.0
290
     0
  0
SCALE
  5
51
102
{ACAD_REACTORS
330
47
102
}
330
47
100
AcDbScale
 70
     0
300
1:40
140
1.0
141
40.0
290
     0
  0
SCALE
  5
52
102
{ACAD_REACTORS
330
47
102
}
330
47
100
AcDbScale
 70
     0
300
1:50
140
1.0
141
50.0
290
     0
  0
SCALE
  5
53
102
{ACAD_REACTORS
330
47
102
}
330
47
100
AcDbScale
 70
     0
300
1:100
140
1.0
141
100.0
290
     0
  0
SCALE
  5
54
102
{ACAD_REACTORS
330
47
102
}
330
47
100
AcDbScale
 70
     0
300
2:1
140
2.0
141
1.0
290
     0
  0
SCALE
  5
55
102
{ACAD_REACTORS
330
47
102
}
330
47
100
AcDbScale
 70
     0
300
4:1
140
4.0
141
1.0
290
     0
  0
SCALE
  5
56
102
{ACAD_REACTORS
330
47
102
}
330
47
100
AcDbScale
 70
     0
300
8:1
140
8.0
141
1.0
290
     0
  0
SCALE
  5
57
102
{ACAD_REACTORS
330
47
102
}
330
47
100
AcDbScale
 70
     0
300
10:1
140
10.0
141
1.0
290
     0
  0
SCALE
  5
58
102
{ACAD_REACTORS
330
47
102
}
330
47
100
AcDbScale
 70
     0
300
100:1
140
100.0
141
1.0
290
     0
  0
SCALE
  5
59
102
{ACAD_REACTORS
330
47
102
}
330
47
100
AcDbScale
 70
     0
300
1/128" = 1'-0"
140
0.0078125
141
12.0
290
     0
  0
SCALE
  5
5A
102
{ACAD_REACTORS
330
47
102
}
330
47
100
AcDbScale
 70
     0
300
1/64" = 1'-0"
140
0.015625
141
12.0
290
     0
  0
SCALE
  5
5B
102
{ACAD_REACTORS
330
47
102
}
330
47
100
AcDbScale
 70
     0
300
1/32" = 1'-0"
140
0.03125
141
12.0
290
     0
  0
SCALE
  5
5C
102
{ACAD_REACTORS
330
47
102
}
330
47
100
AcDbScale
 70
     0
300
1/16" = 1'-0"
140
0.0625
141
12.0
290
     0
  0
SCALE
  5
5D
102
{ACAD_REACTORS
330
47
102
}
330
47
100
AcDbScale
 70
     0
300
3/32" = 1'-0"
140
0.09375
141
12.0
290
     0
  0
SCALE
  5
5E
102
{ACAD_REACTORS
330
47
102
}
330
47
100
AcDbScale
 70
     0
300
1/8" = 1'-0"
140
0.125
141
12.0
290
     0
  0
SCALE
  5
5F
102
{ACAD_REACTORS
330
47
102
}
330
47
100
AcDbScale
 70
     0
300
3/16" = 1'-0"
140
0.1875
141
12.0
290
     0
  0
SCALE
  5
60
102
{ACAD_REACTORS
330
47
102
}
330
47
100
AcDbScale
 70
     0
300
1/4" = 1'-0"
140
0.25
141
12.0
290
     0
  0
SCALE
  5
61
102
{ACAD_REACTORS
330
47
102
}
330
47
100
AcDbScale
 70
     0
300
3/8" = 1'-0"
140
0.375
141
12.0
290
     0
  0
SCALE
  5
62
102
{ACAD_REACTORS
330
47
102
}
330
47
100
AcDbScale
 70
     0
300
1/2" = 1'-0"
140
0.5
141
12.0
290
     0
  0
SCALE
  5
63
102
{ACAD_REACTORS
330
47
102
}
330
47
100
AcDbScale
 70
     0
300
3/4" = 1'-0"
140
0.75
141
12.0
290
     0
  0
SCALE
  5
64
102
{ACAD_REACTORS
330
47
102
}
330
47
100
AcDbScale
 70
     0
300
1" = 1'-0"
140
1.0
141
12.0
290
     0
  0
SCALE
  5
65
102
{ACAD_REACTORS
330
47
102
}
330
47
100
AcDbScale
 70
     0
300
1-1/2" = 1'-0"
140
1.5
141
12.0
290
     0
  0
SCALE
  5
66
102
{ACAD_REACTORS
330
47
102
}
330
47
100
AcDbScale
 70
     0
300
3" = 1'-0"
140
3.0
141
12.0
290
     0
  0
SCALE
  5
67
102
{ACAD_REACTORS
330
47
102
}
330
47
100
AcDbScale
 70
     0
300
6" = 1'-0"
140
6.0
141
12.0
290
     0
  0
SCALE
  5
68
102
{ACAD_REACTORS
330
47
102
}
330
47
100
AcDbScale
 70
     0
300
1'-0" = 1'-0"
140
12.0
141
12.0
290
     0
  0
ENDSEC
  0
EOF
